tab: majisuka rock n’ roll (マジすかロックンロール)

AKB48 – マジすかロックンロール
Single: 桜の栞 / Theme Song for: マジスカ学園

Intro - Main Riff
GUITAR 1
e|------4---4--|--4--6--4--6--4----16-----|
B|--4---4---4--|--4--4--4--4--4----16-----|
G|--5---5---6--|--5--5--5--5--5-----------|
D|--6---6---6--|--6--6--6--6--6-----------|
A|--6----------|--------------------------|
E|-------------|--------------------------|

GUITAR 2
e|-----------------------------------------|
B|-----------------------------------------|
G|-----------------------------3-3s4-3-----|
D|-----------3-----------3--6-----------6--|
A|-----3--6-----6--3--4--------------------|
E|--4--------------------------------------|

e|---------------------------------------|
B|---------------------------------------|
G|---------------------------------------|
D|-----------3-----------3--6--3--6------|
A|-----3--6-----6--3--4--------------b3--|
E|--4------------------------------------|

e|-----------------------------------------|
B|-----------------------------------------|
G|-----------------------------3-3s4-3-----|
D|-----------3-----------3--6-----------6--|
A|-----3--6-----6--3--4--------------------|
E|--4--------------------------------------|

e|-----------------------|
B|-----------------------|
G|-----------------------|
D|-----------3-----------|
A|-----3--6-----6--3--4--|
E|--4--------------------|

Verse I
GUITAR 1 & 2 (almost the same)

I
e|--4---4---|------6---4--4--4--4--4--|
B|--4---4---|--6---6---4--4--4--4--4--|
G|--5---6---|--7---8---5--6--5--6--5--|
D|--6---6---|--8---8---6--6--6--6--6--|
A|----------|--8----------------------|
E|----------|-------------------------|

II
e|--8----8---|-------------------|
B|--8----9---|-------------------|
G|--8----10--|--7---7--8--9--10--|
D|--10---10--|--6----------------|
A|--10---8---|--8---5--6--7--8---|
E|--8--------|--6----------------|

e|---------------------------------|
B|---------------------------------|
G|--6--10--8-----------------------|
D|------------------6--------------|
A|--4--8---6--6--8-----8--6--------|
E|---------------------------8--6--|

Chorus
GUITAR 1
I
e|--------------------------------------|
B|--------4--------------------------4--|
G|--6--5--5---6--5-------------8-----5--|
D|--6--6--6---6--6--3-3-3---8--8--4--6--|
A|--4--3--6---4--3--3-3-3---8--6--4--6--|
E|------------------1-0h1---6-----2-----|

II
e|--------------------------------------|
B|--------4-----------------------------|
G|--6--5--5---6--5-------------5--6--8--|
D|--6--6--6---6--6--3-3-3---8--5--6--8--|
A|--4--3--6---4--3--3-3-3---8--3--4--6--|
E|------------------1-0h1---6-----------|

GUITAR 2
I
e|-----------------------------------|
B|-----------------------------------|
G|--13---15--17--13---12s13--12-13---|
D|-----------------------------------|
A|--11---13--15--11---10s11--10-11---|
E|-----------------------------------|

e|---------------------------------------|
B|---------------------------------------|
G|--13--12s13s12--10--8--10--9s10--9s10--|
D|---------------------------------------|
A|--11--10s11s10--8---6--8---7s8---7s8---|
E|---------------------------------------|

e|--------------------------------|
B|--------------------------------|
G|--10---12---15--17--15--13--12--|
D|--------------------------------|
A|--8----10---13--15--13--11--10--|
E|--9----11-----------------------|

II
e|-----------------------------------|
B|-----------------------------------|
G|--13---15--17--13---12s13--12-13---|
D|-----------------------------------|
A|--11---13--15--11---10s11--10-11---|
E|-----------------------------------|

e|---------------------------------------|
B|---------------------------------------|
G|--13--12s13s12--10--8--10--9s10--9s10--|
D|---------------------------------------|
A|--11--10s11s10--8---6--8---7s8---7s8---|
E|---------------------------------------|

e|--------------------|
B|--------------------|
G|--10---12---13--15--|
D|--------------------|
A|--8----10---11--13--|
E|--9----11-----------|

Back to Intro / Main Riff

Verse II
I
e|-----------11-------------------11--|--16--|
B|--------11----------------11--------|--16--|
G|--13----------13----13--------------|------|
D|-----13----------13----13----13-----|------|
A|------------------------------------|------|
E|------------------------------------|------|

e|------6---4--4--4--4--4--|
B|--6---6---4--4--4--4--4--|
G|--7---8---5--6--5--6--5--|
D|--8---8---6--6--6--6--6--|
A|--8----------------------|
E|-------------------------|

II
e|--8----8---|---------|
B|--8----9---|-----*6--|
G|--8----10--|--7---7--|
D|--10---10--|--6---8--|
A|--10---8---|--8---8--|
E|--8--------|--6------|
*bend

e|---------------------------------|
B|---------------------------------|
G|--6--10--8-----------------------|
D|------------------6--------------|
A|--4--8---6--6--8-----8--6--------|
E|---------------------------8--6--|

Back to Chorus

Back to Main Riff

Bridge
GUITAR 1
e|------------|---------------------|-----------------16--|
B|------------|---------------------|-----------------16--|
G|------------|---------------------|-----13-13-13-13-----|
D|--*11-h-13--|--11-10-11-10-11-10--|--13-13-11-10-11-----|
A|---11-h-11--|--11-11-11-11-11-11--|--11-----------------|
E|------------|---------------------|---------------------|
*bend accordingly

e|--------------16-----------------------|
B|--b17--16-----16--16-------------------|
G|-----------17-----17-b16-15--13p12h13--|
D|---------------------------------------|
A|---------------------------------------|
E|---------------------------------------|

e|----------16-h-18-b19-18-16--------|
B|--16-h-18-------------------18-16--|
G|-----------------------------------|
D|-----------------------------------|
A|-----------------------------------|
E|-----------------------------------|

e|-------------------------|
B|-------------------------|
G|--b16-16-15-13------15---|
D|---------------15--(15)--|
A|--------------------13---|
E|-------------------------|

GUITAR 2
Main Riff Variation
e|-----------------------------------------|
B|-----------------------------------------|
G|-----------------------------3-3s4-3-----|
D|-----------3-----------3--6-----------6--|
A|-----3--6-----6--3--4--------------------|
E|--4--------------------------------------|

e|------------------------------------------|
B|------------------------------------------|
G|------------------------------------------|
D|-----------3--------------3--6-----3------|
A|-----3--6-----6--3--4--4--------4-----b3--|
E|--4---------------------------------------|

e|-----------------------------------------|
B|-----------------------------------------|
G|-----------------------------3-3s4-3-----|
D|-----------3-----------3--6-----------6--|
A|-----3--6-----6--3--4--------------------|
E|--4--------------------------------------|

e|-----------------------|
B|-----------------------|
G|-----------------------|
D|-----------3-----------|
A|-----3--6-----6--3--4--|
E|--4--------------------|

Ends with D#

Outro
Back to Chorus

Back to Main Riffs

ーまじだよ!

About these ads

1 Response to “tab: majisuka rock n’ roll (マジすかロックンロール)”


  1. 1 liveradio 04.27.2013 at 03:19 AM

    To add a new station, simply right-click the
    Radio Tray icon and choose the Configure Radios option.
    Troubleshooting with Win – Journal is a breeze- whatever problems aren’t handled by the impressive help system can be answered directly by Mariner Software’s people on a support forum,
    or VIA email in some cases. Most students are like me and grew up with parents who listened to this
    music and now we are addicted to all these classic rock songs as well.


Leave a Reply

Fill in your details below or click an icon to log in:

WordPress.com Logo

You are commenting using your WordPress.com account. Log Out / Change )

Twitter picture

You are commenting using your Twitter account. Log Out / Change )

Facebook photo

You are commenting using your Facebook account. Log Out / Change )

Google+ photo

You are commenting using your Google+ account. Log Out / Change )

Connecting to %s





Follow

Get every new post delivered to your Inbox.

%d bloggers like this: