tab: omoide in my head

NUMBER GIRL – Omoide in my Head
Album: School Girl Bye Bye

GUITAR 1
Mukai

Intro:
D (etc)
e|--2---0---3---0---5--|
B|--3---3---3---0---3--|
G|--2---2---2---2---2--|
D|---------------------|
A|---------------------|
E|---------------------|

D (cont.)
e|--X-------------------------------------|
B|--X----------------10-------------------|
G|--X~with feeling---9--~improv key of D--|
D|--X----------------7--------------------|
A|--X-------------------------------------|
E|--X-------------------------------------|

G A D
e|--3---5---2-------------------|
B|--3---5---3-------------------|
G|--4---6---2-------------------|
D|--5---7--------0-2-0----------|
A|--5---7--------------2-0------|
E|--3---5------------------3-0--|

Verse-I:
G A D

D
e|--5---0---3---2---0--2--3--2--|
B|--3---3---3---3---3--3--3--3--|
G|--2---2---2---2---2--2--2--2--|
D|------------------------------|
A|------------------------------|
E|------------------------------|

G A D

D

Verse-II:
F#m G

Chorus:
D

G A D

*Repeat all*

2nd D variations
e|--2---2---2------------------|
B|--3---2---3---3-5-3----------|
G|--2---2---2---------4-2------|
D|------------------------5-2--|
A|-----------------------------|
E|-----------------------------|

End with D

GUITAR 2
Hisako

Intro:
D
e|-----------------------|
B|--10---7---8---8---10--|
G|--9----9---7---9---9---|
D|--7----7---7---7---7---|
A|-----------------------|
E|-----------------------|


e|--X-----------------|
B|--X-----------------|
G|--X--~with feeling--|
D|--X-----------------|
A|--X-----------------|
E|--X-----------------|

D
e|------------------|
B|--10---7---7---7--|
G|--7----7---9---7--|
D|--7----7---7---7--|
A|------------------|
E|------------------|

e|-------------------------------|
B|-------------------------------|
G|--7--11--7--4--2--7--11--4--2--|
D|-------------------------------|
A|-------------------------------|
E|-------------------------------|

e|---------------------------------------------------|
B|--10--8--7--8--7--5-----------5--------5-----5-----|
G|---------------------7--6--7-----6--7-----7-----7--|
D|---------------------------------------------------|
A|---------------------------------------------------|
E|---------------------------------------------------|

Verse-I:
D
e|------------------|
B|--10---7---7---7--|
G|--7----7---9---7--|
D|--7----7---7---7--|
A|------------------|
E|------------------|

D
e|------------------------|
B|--10---7---7---7--8--7--|
G|--7----7---9---7--7--7--|
D|--7----7---7---7--7--7--|
A|------------------------|
E|------------------------|

D
e|-------------|
B|-------------|
G|--7---6---7--|
D|--7---7---7--|
A|--5---5---5--|
E|-------------|

D
e|------------------|
B|--10---7---7---7--|
G|--7----7---9---7--|
D|--7----7---7---7--|
A|------------------|
E|------------------|

Verse-II:
(arpeggio)
e|--0---0-------------------|
B|--3---3----3--2-----------|
G|--2---2----------4--2--0--|
D|--------------------------|
A|--------------------------|
E|--2---3-------------------|

e|--0---0----------------|
B|--3---3----------2--3--|
G|--2---2----2--4--------|
D|-----------------------|
A|-----------------------|
E|--2---3----------------|

Chorus:
D
e|------------------|
B|--10---7---7---7--|
G|--7----7---9---7--|
D|--7----7---7---7--|
A|------------------|
E|------------------|

2nd Verse-I:
D
e|-------------------------------------|
B|-------------------------------------|
G|-----7--9--7------7-----7-----7------|
D|--7-----------10-----9-----7---------|
A|---------------------------------10--|
E|-------------------------------------|

D
e|------------------|
B|--10---7---7---7--|
G|--7----7---9---7--|
D|--7----7---7---7--|
A|------------------|
E|------------------|

*Repeat Verse-II*

*Repeat Chorus/etc*

Ending/Solo
e|------------|--------------------------|
B|------------|--12-14-12-12-14-12--b15--|
G|--11-12-14--|--12-12-12-12-12-12--b14--|
D|------------|--------------------------|
A|------------|--------------------------|
E|------------|--------------------------|

e|-----------------------------|
B|--15--17--15--17--15--19--15-|
G|-----------------------------|
D|-----------------------------|
A|-----------------------------|
E|-----------------------------|

e|-----17----17-15-14----17----17-15-14--|
B|--15----15----------15----15-----------|
G|---------------------------------------|
D|---------------------------------------|
A|---------------------------------------|
E|---------------------------------------|

e|---------------------------------------------|
B|--17-17-15-15-14-15-17-15~-------------------|
G|-----------------------------s14-12-11-9s11--|
D|---------------------------------------------|
A|---------------------------------------------|
E|---------------------------------------------|

D

end

About these ads

3 Responses to “tab: omoide in my head”


  1. 1 seitekishoudo 12.12.2010 at 19:11 PM

    Awesome. Great job, this is such a thorough TAB of a thoroughly awesome song.

  2. 2 visit website 06.28.2013 at 23:18 PM

    Hello, I wish for to subscribe for this weblog to obtain newest
    updates, so where can i do it please help out.

  3. 3 Kevii 10.03.2013 at 08:45 AM

    Very nice tab! Fantastic song <3


Leave a Reply

Fill in your details below or click an icon to log in:

WordPress.com Logo

You are commenting using your WordPress.com account. Log Out / Change )

Twitter picture

You are commenting using your Twitter account. Log Out / Change )

Facebook photo

You are commenting using your Facebook account. Log Out / Change )

Google+ photo

You are commenting using your Google+ account. Log Out / Change )

Connecting to %s





Follow

Get every new post delivered to your Inbox.

%d bloggers like this: