tab: brutal man


BRUTAL MAN
NUMBER GIRL
Album: SAPPUKEI

CAPO 2

mukai
e|--0--|---0---0---|------------------|--0---|
B|--0--|---0---0---|------------------|--0---|
G|--4--|---4---4---|------------------|--1---|
D|--4--|---4---0---|--2---5--6-----2--|--2---|
A|--0--|---0---3---|--2---3--4--5--2--|--2---|
E|--3--|---3-------|--0---------3--0--|------|

hisako
e|--0---0--|--14---------|--------------------|
B|--0---5--|---------14--|--5--------------3--|
G|--4---4--|------11-----|------3p2-----------|
D|--4---0--|-------------|-----------5--2-----|
A|--0---3--|-------------|--------------------|
E|--3------|-------------|--------------------|

e|---------|------------------|--------------|
B|---------|------------------|--------------|
G|------5--|------------------|--------------|
D|--5---5--|--2---5--6-----2--|-----5--2--5--|
A|--5---3--|--2---3--4--5--2--|--5--3--2--3--|
E|--3------|------------3-----|--3-----------|

*very similar to BRUTAL NUMBER GIRL*

tab: mini grammer


NUMBER GIRL
♫ MINI GRAMMER
Album: School Girl Bye Bye

Mukai - *CAPO 7*
Main/Verse
e|--2---2----|--2---2----|
B|--0---0----|--0---0----|
G|--0---0----|--0---0----|
D|--0---0----|--0---0----|
A|--0---0----|--2---0h2--|
E|--2---0h2--|--0---0----|

Chorus
e|--2----3--|
B|--3----3--|
G|--2----0--|
D|--0----0--|
A|--0----2--|
E|--2----3--|

HISAKO
Verse
e|-----------------------9--7--9--7--|
B|-----------------------------------|
G|--------------x---x----------------|
D|--16----11----x---x----------------|
A|--14----11----x---x----------------|
E|--14----9--------------------------|

e|-----------------------14-12--------|
B|-----------------------------14-12--|
G|--------------x---x-----------------|
D|--16----11----x---x-----------------|
A|--14----11----x---x-----------------|
E|--14----9---------------------------|

Chorus/Etc
e|------------|--9----10---|------------|
B|------(10)--|--9----10---|------------|
G|--9----11---|--9----11---|------------|
D|--11---12---|--11---12---|------------|
A|--12---12---|--12---12---|--9--9---9--|
E|------------|--9----10---|--9--7h9-7--|

Solo
e|-------------------------------------------------|
B|-------------------------------------------------|
G|---------------------------------2-4-2--4-5b-5b--|
D|-----------4--2--------------2-4-----------------|
A|-----4--2---------4-4-2-0------------------------|
E|--2-----------------------0----------------------|

e|---------------------------------------------------|
B|-------------------17-17-14---------13--13h14--14--|
G|-6-6s9-9s11-11s14-----------16-14---14--14-----14--|
D|---------------------------------------------------|
A|---------------------------------------------------|
E|---------------------------------------------------|

e|--------12-14-16-17-17---------------------|
B|--12-14----------------17------------------|
G|--------------------------14---------------|
D|-----------------------------16-14---------|
A|-----------------------------------17-16b--|
E|-------------------------------------------|

e|----------------------------------|
B|----------------------------------|
G|----------------------------------|
D|----------------------------------|
A|--7-5-----------------------------|
E|------7-5-0-2s5-2s7-2s9-2s12s12~--|

End

tab: sexual hell (性的地獄)



性的地獄
Artist: 透明雜誌 / Touming Magazine
Album: 我们的灵魂乐

Guitar 1 - *CAPO 1*

Am7 - Bm7 - Em

Am7 - Bm7 - Em - G

Am7 - Bm7 - Em - Cmaj7

e|--12---------------------|
B|--12---------------------|
G|--12--bend with feeling--|
D|--12---------------------|
A|-------------------------|
E|-------------------------|

e|---------------------------------------------|
B|-----------------------------------------15--|
G|--12--9---12--14--9---16--17--16-14-12---14--|
D|-----------------------------------------12--|
A|--10--7---10--12--7---14--15--14-12-10-------|
E|---------------------------------------------|

Guitar 2 - *CAPO 3*

Intro
e|-1-----3-----5--5---4-----5-----7--5--|
B|----------------5------------------6--|
G|---0-2---2-3----5-----3-5---5-5----7--|
D|-----------------------------------0--|
A|--------------------------------------|
E|--------------------------------------|

Main Riff
e|----------5--|
B|----------6--|
G|--3---5---7--|
D|--3---5---0--|
A|--x---x------|
E|--3---5------|


e|-------10------8---------------------------|
B|--8h10----10-8---8-6------6--6--8--6--b10--|
G|----------------------5s7----7--7--7---10--|
D|-------------------------------------------|
A|-------------------------------------------|
E|-------------------------------------------|

e|-13--12--10--------------------10--|
B|-13--13--10---6----------------10--|
G|--------------5-~slide+bend~---10--|
D|-----------------------------------|
A|-----------------------------------|
E|-----------------------------------|

Verse Riffs
e|----------5--10--|
B|----------6--10--|
G|--3---5---7--10--|
D|--3---5---0--10--|
A|--x---x----------|
E|--3---5----------|

e|-------------|
B|-------------|
G|--3---5---7--|
D|--3---5---7--|
A|--x---x---x--|
E|--3---5---6--|

e|-------10--------------|-------8------------|
B|--8h10----10-8h10s6----|--8h10---10-8h10s6--|
G|--------------------5--|--------------------|
D|-----------------------|--------------------|
A|-----------------------|--------------------|
E|-----------------------|--------------------|

Bridge
e|--10p8-10------------|
B|--10p8-10---10p9-10--|
G|------------10p9-10--|
D|---------------------|
A|---------------------|
E|---------------------|

Solo
e|--10---13---------------8------8--------13--10--|
B|------------10--10-8-10---10-----10--13---------|
G|------------------------------------------------|
D|------------------------------------------------|
A|------------------------------------------------|
E|------------------------------------------------|

e|-10----13--10--13-----13-10-15---------------------------------------|
B|----13------------10--------------------------------8s10-8p6---------|
G|----------------------------------------------7--10----------7-10-7--|
D|---------------------------------------7--10-------------------------|
A|---------------------------------8--10-------------------------------|
E|---------------------------------------------------------------------|

e|----------5--|
B|----------6--|
G|--3---5---7--|
D|--3---5---0--|
A|--x---x------|
E|--3---5------|

e|-------------|
B|-------------|
G|--3---5---7--|
D|--3---5---7--|
A|--x---x---x--|
E|--3---5---6--|
END

tab: zetsumetsu kurokami shoujo (絶滅黒髪少女)

絶滅黒髪少女

Artist: NMB48
Single: 絶滅黒髪少女

Intro
e|--6--------------------------|
B|--6---------------1---3---4--|
G|--5---------0h1h2-----3---4--|
D|--3---0h1h2-----------3---4--|
A|-----------------------------|
E|-----------------------------|

Main (Ver1)
e|----------------------5--7------------|
B|----------------------6--9-10-9-10-9--|
G|-----8-7--5-----------5--7-9--9-9--9--|
D|--7--7-7--5----------------9--9-9--9--| (X2)
A|--7--6-5--3--0-3-0--------------------|
E|--5-----------------------------------|

Main (Alternate)
e|----------------------------------------------|
B|----------------------2--6---1-3-4-3h4p3---1--|
G|-----8-7--5-----------3--5---------------2----|
D|--7--7-7--5-----------0--0--------------------|
A|--7--6-5--3--0-3-0----------------------------|
E|--5-------------------------------------------|

e|----------------------5----------------------5--|
B|----------------------6--6-5-3--1-3-4-3h4p3--5--|
G|-----8-7--5-----------5--5-5-2---------------5--|
D|--7--7-7--5-------------------------------------|
A|--7--6-5--3--0-3-0------------------------------|
E|--5---------------------------------------------|

Verse I
e|--------------------------|
B|--------------------------|
G|-----5--7-----------------|
D|--7--5--7--3--2-----------|
A|--7--3--5-------3--5p3p0--|
E|--5--------1--------------|

e|-------------------------------|
B|-------------------------------|
G|-----4-6-4-6--7--9-10--9-10-9--|
D|--7----------------------------| (x2)
A|-----2-3-2-3--5--7-8---7-8--7--|
E|--5----------------------------|

e|-------------------------------|
B|-------------------------------|
G|-----4-6-4-6----------7--9-10--|
D|--7-----------3-5-7------------|
A|-----2-3-2-3----------5--7-8---|
E|--5-----------1-3-5------------|
CHORUS
e|--------------------------------------|
B|-------------------------------1------|
G|------12-10-9--7--5--4--5--2---2------|
D|--7---12-10-9--7--5--4--5--2---3---7--| (x2)
A|--7---10-8--7--5--3--2--3--0---3---7--|
E|--5--------------------------------5--|
e|------------------------------|
B|------------------------------|
G|------5---7---7---10----------|
D|--7---5---7---7---10--(3)--5--|
A|--7---3---5---5---8---(3)--5--|
E|--5-------------------(1)--3--|

FILL
e|------------------------------------|
B|------------------------------------|
G|-----5--7---------------------------|
D|--7--5--7--3--0-7p5p0-3p2-----------|
A|--7--3--5-----------------3--5p3p0--|
E|--5--------1------------------------|

Back to Verse

Back to Chorus

Bridge
e|---------------------------|
B|---------------------------|
G|--5--7--9-7-9--10--12--14--|
D|---------------------------|
A|--3--5--7-5-7--8---10--12--|
E|---------------------------|

Bridge Gtr Solo
e|-------------------------------11-10--------|
B|--b15-b15-15-12--------9-11-13-------12-13--|
G|-----------------10-12----------------------|
D|--------------------------------------------|
A|--------------------------------------------|
E|--------------------------------------------|

e|--s16-15-----------------------------------13-----|
B|---------15-16-13-15-12-13-9-11--------b14----13--|
G|--------------------------------10-12-------------|
D|--------------------------------------------------|
A|--------------------------------------------------|
E|--------------------------------------------------|

e|--15--16--15--13---------18-----------|
B|--16--16--16--13----s15------15--13~--|
G|--15--15--15--13----------------------|
D|--------------------------------------|
A|--------------------------------------|
E|--------------------------------------|

Bridge pt. III
e|--------|----------------------|
B|-----9--|----------------------|
G|--9--9--|----------------------|
D|--9--9--|-------------------7--|
A|--7-----|--3---5---7--5--7--8--|
E|--------|--5---7---8--8--8-----|

Back to Chorus

Back to Main

Outro
e|----------------------------|
B|--------------1---3---4--5--|
G|--------0h1h2-----3---4--5--|
D|--0h1h2-----------3---4--5--|
A|----------------------------|
E|----------------------------|
END

**self-made arrange.

tab: tokyo lights (東京電燈 -Tokyo Lights-)

東京電燈 -Tokyo Lights-

Artist: LEO今井
Album: City Folk

Main
e|------------------------------|
B|--5-6-5-----------------------|
G|---------5----------5---------|
D|------------7--5-7----(5)--7--|
A|------------------------------|
E|------------------------------|

Verse
F - F - A# - F - F - A# - C - Dm - A# - C
e|----------------------------------------|
B|----------------------------------------|
G|--10---10-----10--10--------------------|
D|--10---10--8--10--10--8--10--12--8--10--|
A|--8----8---8--8---8---8--10--12--8--10--|
E|-----------6----------6--8---10--6--8---|
(Palm-mute)

Chorus
e|-----------------|
B|-----------------|
G|--10-------------|
D|--10----8---12---|
A|--8-----8---12---|
E|--------6---10---|

Chorus lead
e|--------------13--15--17-17b-17--13-----------|
B|----------13-------------------------13-(15)--|
G|--12--14--------------------------------------|
D|----------------------------------------------|
A|----------------------------------------------|
E|----------------------------------------------|

Bridge
e|---------------------------------|
B|---------------------------------|
G|--10--8--7-----------------------|
D|--10--8--7--8---5---8----10--10--|
A|--8---6--5--8---5---8----10--10--|
E|------------6---3---6----7---8---|

Ending
F - Dm

END

tab: tokyo lights 2 (東京電燈其二)

Tokyo Lights 2 (東京電燈其二)

Artist: LEO今井
Album: FIX NEON

Main/Intro
e|----------8---------8-------|----------------|
B|-----8---------8------8-----|--1-~s13-15-10--|
G|--10---10---10---10-----10--|----------------|
D|----------------------------|----------------|
A|----------------------------|----------------|
E|----------------------------|----------------|

Verse
e|------------------|-------------|
B|------------------|--6---6---6--|
G|--10--10--10--10--|--5---5---5--|
D|--10--10--10--10--|--3----------|
A|--8---10----------|----------5--|
E|----------8---10--|------6------|
(Half-Mute)

Chorus
e|-----------------------------|--------------------------|
B|-----------------------------|--------------------------|
G|--3---5---7---2--3-----------|--3--5--7--2--3-----------|
D|--3---5---7---2--3-----------|--3--5--7--2--3--5--7--8--|
A|--1---3---5---0--1-------0)--|--1--3--5--0--1--5--8--8--|
E|--------------------(0h1-----|-----------------3--5--6--|

Chorus (Lead)
e|--15--17--12--13--------------------------|
B|------------------13--15------------------|
G|--------------------------10--12----------|
D|----------------------------------10--12--|
A|------------------------------------------|
E|------------------------------------------|

e|--15--17--12--13----------------------|
B|------------------13--15--------------|
G|--------------------------10--12------|
D|----------------------------------12--|
A|--------------------------------------|
E|--------------------------------------|

e|--15--17--13---15--17--19--20~--|
B|--------------------------------|
G|--------------------------------|
D|--------------------------------|
A|--------------------------------|
E|--------------------------------|

Repeat all

e|--10--12--13!--|
B|---------------|
G|---------------|
D|---------------|
A|---------------|
E|---------------|

Back to Chorus

Chorus Lead (alternate end)
e|--15--17------------|
B|----------b12--10~--|
G|--------------------|
D|--------------------|
A|--------------------|
E|--------------------|

Back to Main/Intro

END

tab: nichijou ni ikiru shoujo (日常に生きる少女)

日常に生きる少女

Artist: NUMBER GIRL
Album: SCHOOL GIRL DISTORTIONAL ADDICT

 

MUKAI (Guitar 1)

****CAPO 4*****

INTRO
e|----------------|
B|----------------|
G|----------------|
D|------9--11--9--|
A|--11--0--0---0--|
E|--0-------------|

Main Riff
e|--------------------------------------------|
B|----------------------------12--------------|
G|--------------------11b11--(12)--b11-11--9--|
D|-------------9--11--------------------------|
A|--11--9--11--0--0---------------------------|
E|--0---0--0----------------------------------|

Verse (Half Mute)
e|---------|---------|
B|---------|---------|
G|---------|---------|
D|---------|---------|
A|--6---7--|--9---9--|
E|--0---5--|--7---0--|

Main Riff (Chorus)
e|-------------------------------------|
B|-------------------------------------|
G|--------------------11b11-b11-11--9--|
D|-------------9--11-------------------|
A|--11--9--11--0--0--------------------|
E|--0---0--0---------------------------|

*noise with feeling*

Rest of It
e|-----|-------------------------------|-------|
B|-----|-------------------------------|-------|
G|-----|----8----8---------------------|-------|
D|-----|------11---11-9---11-11--------|-------|
A|--6--|-6----------------------12-11--|--6-7--|
E|--0--|-0-----------------------------|--0-5--|

e|-----------------|----------------------------------|
B|-----------------|----------------------------------|
G|-----8-9-8-------|--------9-8-----------------9-11--|
D|-----------11-9--|------------11-----0-0-9-11-------|
A|--6--------------|--6--7----------6-----------------|
E|--0--------------|--0--5----------0-----------------|

e|-----------------------------------|
B|-----------------------------------|
G|-----8-9-8----11-11-11-11b11-11-9--|
D|--11-------------------------------|
A|-----------2s----------------------|
E|-----------------------------------|

e|---------------------------------------------------|
B|---------------------------------------------------|
G|--------------------------------9-11-11b-11~11--9--|
D|----------9-11------------9-11---------------------|
A|--11-9-11-0-0----11--9-11-0-0----------------------|
E|--0--0-0---------0---0-0---------------------------|
*a few times

e|--------|----------------------|
B|--------|----------------------|
G|--------|----------------------|
D|--------|--noise with feeling--|
A|--9--9--|----------------------|
E|--7--0--|----------------------|

e|---------------------------------------------------|
B|---------------------------------------------------|
G|----------------9--9--8----------8--------------8--|
D|-------------------------11--11-----9--9--9--11----|
A|--6--14-----0--------------------------------------|
E|--0--0---0--0--------------------------------------|

e|-----------------------------------|
B|-----------------------------------|
G|--9-9-9--8------------8------------|
D|------------9--9--11-----11--9--9--|
A|-----------------------------------|
E|-----------------------------------|

e|----------------------------------------------|
B|--12-----------------------------8--9--8------|
G|------11--9--8--9--9--11--9--11-----------11--|
D|----------------------------------------------|
A|----------------------------------------------|
E|----------------------------------------------|

e|----------------------------|
B|----------------8h11--8-----|
G|-------------------------0--|
D|--11--11--11~---------------|
A|----------------------------|
E|----------------------------|

e|--------------------------------4-5-7--5-4--|
B|--8-8-8~--6-----------5-7-7-7-7-------------|
G|------------5-4-5-4-6-----------------------|
D|--------------------------------------------|
A|--------------------------------------------|
E|--------------------------------------------|

e|--4------------------------------------|
B|----5--0-------------------------------|
G|------------------------------------9--|
D|--------------------------9----9-------|
A|-------------------7-9-11---11---11----|
E|----------2--s7--9---------------------|

e|---------------------------------|
B|---------------------------------|
G|--9--11-11-11~--9------11--9--9--|
D|-------------------11------------|
A|---------------------------------|
E|---------------------------------|

e|--------------------------------------|
B|--------------------------------------|
G|--------------------------------------|
D|------11------11------11------11------|
A|--11--0---11--0---11--0---11--0---11--|
E|--0-------0-------0-------0-------0---|

HISAKO (Guitar 2)

****CAPO 4****

e|---------|--7--|------0--|
B|---------|--4--|------0--|
G|---------|--4--|--1---2--|
D|--2---7--|-----|--2---2--|
A|--2---4--|-----|--2---0--|
E|---------|-----|---------|

e|---------------------------4--5--|
B|--5---------------3-2------4--5--|
G|----4-2-1-1-----------2-2--------|
D|----------------2----------------|
A|---------------------------------|
E|---------------------------------|

e|---------------------------------|
B|--5---------------3-2------------|
G|----4-2-1-1-----------2-2--4--6--|
D|----------------2----------------|
A|---------------------------------|
E|---------------------------------|

e|------------------|-------------------|
B|--4-4-4---5-------|--4-4-4---5-5------|
G|--------4----4-6--|--------4----------|
D|------------------|----------------2--|
A|------------------|----------------2--|
E|------------------|----------------0--|

e|--------------------|
B|--4-4-4---5-5-------|
G|--------4-----------|
D|----------------4---|
A|----------------2---|
E|--------------------|

e|------0--------------------------|
B|------0-------------|
G|--1---2------------|
D|--2---2--------------------------|
A|--2---0--------------------------|
E|---------------------------------|

e|--------------------------------------------|
B|--------4-4-4-7-5--5---------4-4-4-----5-5--|
G|--4--6-----------------4--6---------4-------|
D|--------------------------------------------|
A|--------------------------------------------|
E|--------------------------------------------|

e|---------------7--------|
B|--------4-4-4-----5--5--|
G|--4--6------------------|
D|------------------------|
A|------------------------|
E|------------------------|

e|--------------------------------------------|
B|-----------------------------------------9--|
G|--8----8---8---8--8-9-8-6------8--9--8------|
D|--6----6---6---------------9---6--6--6---9--|
A|--------------------------------------------|
E|--------------------------------------------|

e|-------------------------------------------------|
B|------------------------------14-14-14-12-13-----|
G|--9s11-9-11s13----9---13--8-------------------8--|
D|----------------9-9-------6-------------------6--|
A|-------------------------------------------------|
E|-------------------------------------------------|

e|---------------------------------------------------------------------|
B|-------------9---7----------9---9---9---9--10---12----12-----14--12--|
G|--11--9--8----------9---13----9---9---9----9-------13----13--13--13--|
D|---------6---9---9--9------------------------------------------------|
A|---------------------------------------------------------------------|
E|---------------------------------------------------------------------|

e|------------14-14-14-12---------------------------------------12----------|
B|--10---12---------------13---14-14-14-12------12--12-14-12-14-----12--10--|
G|--9----13--------------------------------13---------------13--------------|
D|--------------------------------------------------------------------------|
A|--------------------------------------------------------------------------|
E|--------------------------------------------------------------------------|

e|--14-14-14-12-----------------------------------|
B|--------------14-12----------12----9------------|
G|---------------------10---------------11-11--9--|
D|--------------------------7------7--------------|
A|------------------------------------------------|
E|------------------------------------------------|

e|------------------------------------|
B|--9---9---9--10---9-9-11-9--11--13--|
G|----9---9----9----------------------|
D|------------------------------------|
A|------------------------------------|
E|------------------------------------|

e|-------------------------------------------------------------------|
B|--10---10----------12--14--12-14--12--12--12--10--9----------------|
G|--9--------13--13------------------------------------11--11--9--9--|
D|-------------------------------------------------------------------|
A|-------------------------------------------------------------------|
E|-------------------------------------------------------------------|

e|--12-14-14-14-14-12---------------------------|
B|--------------------14-12-------12-----12-----|
G|--------------------------13-13-----13----13--|
D|----------------------------------------------|
A|----------------------------------------------|
E|----------------------------------------------|

e|---------|-----------------------------|
B|---------|-----------------------------|
G|---------|-----------------------------|
D|--4---4--|-------------------------14--|
A|--2---2--|--16---14--12---11--12---0---|
E|---------|--0----0---0----0---0----0---|

e|--0----0--|
B|--0----0--|
G|--1----2--|
D|--2----2--|
A|--2----0--|
E|--0-------|

END