tab: drunk afternoon

Number Girl

Drunk Afternoon
album: Destruction baby

Intro, Verse, Chorus

Mukai
e|-----------|-------------------|
B|-----2-----|--2----------------|
G|-----2--6--|--2----------------|
D|--2--2--6--|--2--2-------------|
A|--2-----4--|-----2-------------|
E|--4--------|-----4-------------|

Tabuchi
e|-----7------------9-9-----7---|
B|-9-----7-9p7h9--------9-------|
G|----------------------9-------|
D|---9--------------------------|
A|------------------------------|
E|------------------------------|

e|-4----------------------------|
B|---7-5---5---5-7-0------------|
G|-------6---6----(4)-----------|
D|------------------------------|
A|------------------------------|
E|------------------------------|

(either)

0 Responses to “tab: drunk afternoon”



  1. Leave a Comment

Leave a Reply

Fill in your details below or click an icon to log in:

WordPress.com Logo

You are commenting using your WordPress.com account. Log Out / Change )

Twitter picture

You are commenting using your Twitter account. Log Out / Change )

Facebook photo

You are commenting using your Facebook account. Log Out / Change )

Google+ photo

You are commenting using your Google+ account. Log Out / Change )

Connecting to %s





%d bloggers like this: