tab: honnoji

Honnoji
album: Zazen Boys 4

MUKAI
e|---9---11h12--------|------12----------|
G|---10--11h12--------|------12----------|
B|---9----9-----------|------9-----------|
D|---9----9-----------|------9-----------|
A|---9----9-----------|------9-----------|
E|---X----X-----------|------X-----------|

CASIOMAN
e|-------------------------|--------9(9)---------|
G|-----7(7)--10(10)--9(9)--|-----9(9)------------|
B|--6(6)-------------------|--6(6)---------------|
D|-------------------------|---------------------|
A|-------------------------|---------------------|
E|-------------------------|---------------------|
(this is either a delay effect or plucking them twice)

e|-------------------------|--------------7h9----|
G|--------------9h10--7h9--|---------------------|
B|--------9h11-------------|--------9h11---------|
D|--9h11-------------------|--9h11---------------|
A|-------------------------|---------------------|
E|-------------------------|---------------------|


1 Response to “tab: honnoji”


  1. 1 Zimos 07.26.2012 at 04:53 AM

    this one is so much fun to play. i find that it sounds best with a delay to set to really low feedback so you only get one repetition. i still don’t know how casioman gets that wiry guitar tone though. pitch shifter?


Leave a Reply

Fill in your details below or click an icon to log in:

WordPress.com Logo

You are commenting using your WordPress.com account. Log Out / Change )

Twitter picture

You are commenting using your Twitter account. Log Out / Change )

Facebook photo

You are commenting using your Facebook account. Log Out / Change )

Google+ photo

You are commenting using your Google+ account. Log Out / Change )

Connecting to %s