tab: maboroshi in my blood



Maboroshi in my Blood
album: Zazen Boys I

Drop D tuning:

MUKAI
e|----------------------|--4--------|-----------|
B|----------------------|--5--------|-----------|
G|----------4--2--------|--6--4--2--|--2--2--2--|
D|-0--2--4--4--2--4--0--|--6--4--2--|--2--2--2--|
A|-0--2--4--4--2--4--0--|--4--4--X--|--0--X--0--|
D|-0--2--4--X--X--4--0--|-----4--2--|-----2-----|

e|-------------------------------|--4----------------|
B|-------------------------------|--5----------------|
G|-------------------------------|--6--4--2-----2----|
D|-----6-------------6-----------|--6--4--2-----2----|
A|--4-------7--4--4-----------7--|--4--4--X-----X----|
D|-------7--------------7--7-----|-----4--2-----2----|

YOSHIKANE
e|--15--|--------------------12-12-12--|
B|--14--|---------12-------------------|
G|------|--9--11------9--11------------|
D|------|------------------------------|
A|------|------------------------------|
E|------|------------------------------|

e|--12-------------------------9-9------9--9------9--12--9------9-----|
B|------12--9--12--9------9---------12--------12------------12--------|
G|--------------------11----------------------------------------------|
D|--------------------------------------------------------------------|
A|--------------------------------------------------------------------|
E|--------------------------------------------------------------------|

e|--------------------12-12-12--------------------------------------|
B|---------12---------------------------12------10-10-10--10-10-----|
G|--9--11------9--11-------------9--11------11----------------------|
D|------------------------------------------------------------------|
A|------------------------------------------------------------------|
E|------------------------------------------------------------------|

listen to song to see where they go.
just make up ad-libs in-between rests like they do in live shows.

0 Responses to “tab: maboroshi in my blood”



  1. Leave a Comment

Leave a Reply

Fill in your details below or click an icon to log in:

WordPress.com Logo

You are commenting using your WordPress.com account. Log Out / Change )

Twitter picture

You are commenting using your Twitter account. Log Out / Change )

Facebook photo

You are commenting using your Facebook account. Log Out / Change )

Google+ photo

You are commenting using your Google+ account. Log Out / Change )

Connecting to %s





%d bloggers like this: