tab: teppu surudoku natte (鉄風鋭くなって)

Number Girl - Teppu Surudoku Natte (鉄風鋭くなって)
single: 鉄風鋭くなって

Mukai

Main
C#m G#m7 A6 E9
e|--------------------|
B|--5----4---------9--|
G|--6----4----5----9--|
D|--6----4----7----9--|
A|--4----6----7----7--|
E|--X----4----5----X--|

*pluck for greater effect

Tabuchi

Main Riff
e|----4---4-7-7-7-4---4---4---0--0--4--|
B|--5---5-----------7---7---5--5---5---|
G|-------------------------------------|
D|-------------------------------------|
A|-------------------------------------|
E|-------------------------------------|

Verse I
e|----------------------------------|---------------------|
B|----------------------------------|-----12-12-12-14-12--|
G|----------------------------------|---------------------|
D|--11-11-11-11-11-14-14-14-14-13---|--11-----------------|
A|----------------------------------|---------------------|
E|----------------------------------|---------------------|

e|-------------------------------------|----------12------|
B|----------------------10-10-10-10-9--|--14--12------12--|
G|-------11h13------11h13--------------|------------------|
D|--9h11------9h11---------------------|------------------|
A|-------------------------------------|------------------|
E|-------------------------------------|------------------|

Verse II
e|------------------------------|
B|------------------------------|
G|-----13-------13-13h16-13-16--|
D|--11----11-11-----------------|
A|------------------------------|
E|------------------------------|

e|------------------------------------------|
B|--14p12-12--14p12-12--------17--14p12-12--|
G|----------------------13h16---------------|
D|------------------------------------------|
A|------------------------------------------|
E|------------------------------------------|

Bridge - Outro
C#m
e|-----|-------4(4)------7(7)-4(4)-----------4(4)--|
B|--X--|------------7(7)-----------5(5)-7(7)-------|
G|--6--|--6(6)-------------------------------------|
D|--6--|-------------------------------------------|
A|--4--|-------------------------------------------|
E|--X--|-------------------------------------------|

KAZE!


1 Response to “tab: teppu surudoku natte (鉄風鋭くなって)”


  1. 1 Kenster IM System Bonus 03.26.2014 at 14:55 PM

    I’m really loving the theme/design oof your website.

    Do you ever run intyo any internet browser compatibility issues?
    A number of my blog audience have complained about myy
    website not operating correctly in Explorer but looks
    great in Opera. Do you have any ideas to help fix this issue?


Leave a Reply

Fill in your details below or click an icon to log in:

WordPress.com Logo

You are commenting using your WordPress.com account. Log Out / Change )

Twitter picture

You are commenting using your Twitter account. Log Out / Change )

Facebook photo

You are commenting using your Facebook account. Log Out / Change )

Google+ photo

You are commenting using your Google+ account. Log Out / Change )

Connecting to %s





%d bloggers like this: