tab: touch (タッチ)

Number Girl - Touch (タッチ)
Album: School Girl Distortional Addict

Mukai

Intro
e|--0--0--0--0--0--0--0--0--0--0--0--0--0--0--0--0--0--|
B|--0--0--0--0--0--0--0--0--0--0--0--0--0--0--0--0--0--|
G|--2--4--2--2--4--4--6--2--2--4--2--2--6--2--2--4--2--|
D|--------2--2-----4-----2--------2--2--6--2--2--------|
A|--2--4--------4-----5-----2--4-----------------4--2--|
E|--------1--2-----3-----2--------1--2--5--1--2--------|

Verses
e|--0--|--0---0--|--0---0---0--|-*--0--0--0---0--|--------------|--0--|
B|--0--|--0---0--|--0---0---0--|-*--0--0--0---0--|--------------|--0--|
G|--4--|--4---2--|--2---2---4--|-*--2--2--2---0--|--------------|--2--|
D|--4--|--4---2--|------2---4--|-*--2--0--2---4--|--4-----------|-----|
A|-----|---------|--2----------|-*--0--2--0---4--|--2--5--5--3--|--2--|
E|--3--|--3---2--|------2---3--|-*--------2---3--|-----2--3--1--|-----|

****arpeggio this part

Chorus - Bridge - Outro
e|--0---0---0--|--0---0---0-0-0--|--0--0--0--0--0--0--0--0--0---|
B|--0---0---0--|--0---0---2h3-2--|--0--0--0--0--0--0--0--0--0---|
G|--4---2---2--|--4---2---2-2-2--|--4--2--2--2--6--2--2--4--2---|
D|--4---2------|--4---2----------|-----2--2--2--6--2--2-----2---|
A|----------2--|----------2-2-2--|--4--------------------4------|
E|--3---2------|--3---2----------|-----2--1--2--5--1--2-----1---|

Tabuchi

Intro
e|--0--0--0--0--0--0--0--0--0--0--0--0-----------0-----|
B|--3--3--3--3--0--0--3--3--3--3--3--3--2--3--3--0-----|
G|--2--2--2--2--6--0--2--2--2--2--2--2--2--2--2--6--4--|
D|--0--0--0--0--6--0--0--0--0--0--0--0--2--0--0--6--4--|
A|--2--0--0--0--0--2--0--0--2--0--0--0--0--0--0--0--2--|
E|--2--2--1--2-----3-----2--2--2--1--2-----1--2--------|

Verses
e|---------|--------|------------|
B|---------|--------|------------|
G|---------|--------|------------|
D|---------|--7--7--|--9---------|
A|-----10--|--5--4--|--9--9--10--|
E|--3--10--|--------|-----9--10--|

Pre-Chorus I
e|----------------------------------------------------|
B|----------2-------3-2--------------2-----------0----|
G|------2s4---4---4-----4-2------2s4---4---4---2---2--|
D|----2---------4--------------2---------4---4--------|
A|--0------------------------0------------------------|
E|----------------------------------------------------|

Pre-Chorus II - Chorus
e|--------------|-----|-----------|--0--0--0--|
B|--------------|-----|-----------|--3--3--3--|
G|--------------|--4--|-----4--4--|--2--2--2--|
D|--4-----------|--4--|--5--4--4--|--0--0--0--|
A|--2--4--5--3--|--2--|--5--2--2--|--0--0--2--|
E|-----2--3--1--|-----|--3-----2--|--3--2-----|

Bridge - Outro
e|-----------------------|--0--0--0--0-----0--0--0--0--|
B|-----------------------|--0--3--3--3--2--3--3--0--3--|
G|-----------------------|--6--2--2--2--2--2--2--6--2--|
D|--4--4--7--4--4--5--4--|--6--0--0--0--2--0--0--6--0--|
A|--4--5--5--4--5--4--5--|--0--0--0--0--0--0--0--0--0--|
E|-----------------------|-----2--1--2-----1--2-----1--|


3 Responses to “tab: touch (タッチ)”


  1. 1 l2yz 02.13.2010 at 22:39 PM

    Just a quick question are you using courier new to tab stuff out? I think regardless of the character you input, they are all the same width, so that might fix any alignment issues.

    • 2 roninbuddha 02.14.2010 at 04:34 AM

      i have no idea… im using browser/blog template defaults.. and if it shows up messy to me (safari browser), then i try to fix it up to look presentable and readable from the get go… if you have the time,c an you post a screen on how it looks on yours?

      and oh, i use the html thing for 'unicode' but it still doesnt show up right..

      i'd rather use a VWF Arial font tbh

    • 3 roninbuddha 02.14.2010 at 06:44 AM

      im using textedit’s plain text system font (kinda like notepad’s default), then just copy-pasting them here..
      it should be ‘aligned’ properly when copy-pasted

      either way, i’m trying courier now thanks


Leave a Reply

Fill in your details below or click an icon to log in:

WordPress.com Logo

You are commenting using your WordPress.com account. Log Out / Change )

Twitter picture

You are commenting using your Twitter account. Log Out / Change )

Facebook photo

You are commenting using your Facebook account. Log Out / Change )

Google+ photo

You are commenting using your Google+ account. Log Out / Change )

Connecting to %s





%d bloggers like this: