tab: usodarake

Zazen Boys - USODARAKE
album: Zazen Boys I

e|-------|-------|-------|
B|-------|-------|-------|
G|-------|-------|-----6-|
D|-----5-|-----6-|-------|
A|-------|-------|--4----|
E|--3----|--4----|-------|

e|-----------------------------------------------|-----------------|
B|-----------------------------------------------|--------9--------|
G|-----6---6----------6-------6-----6-----4-4----|--6/8h9---9p8p6--|
D|----------------6h7--7p6----------------4-4----|-----------------|
A|--4---4----4--4------------4---4--------2-2----|-----------------|
E|-----------------------------------------------|-----------------|

*Just listen to the song for timing/strumming

e|---------0----|--------|-----------|----------------|
B|---------2----|--------|-----------|----------------|
G|---------2----|-----6--|--6--6--6--|--6--6--6-6--2--|
D|-----6---2----|--------|--7--7--6--|--7--7--7-6--4--|
A|---------x----|--4-----|--7--7--6--|--7--7--7-6--4--|
E|--4------x----|--------|--5--5--4--|--5--5--5-4--2--|

* you can use Power/A6, but open A sounds better in my opinion
**note: tab accuracy is questionable on this one :)

1 Response to “tab: usodarake”



  1. 1 preventivi Trackback on 08.19.2014 at 11:03 AM

Leave a Reply

Fill in your details below or click an icon to log in:

WordPress.com Logo

You are commenting using your WordPress.com account. Log Out / Change )

Twitter picture

You are commenting using your Twitter account. Log Out / Change )

Facebook photo

You are commenting using your Facebook account. Log Out / Change )

Google+ photo

You are commenting using your Google+ account. Log Out / Change )

Connecting to %s





%d bloggers like this: