tab: hantoumei shoujo kankei (半透明少女関係)

Zazen Boys - Hantoumei Shoujo Kankei (半透明少女関係)
album: 半透明少女関係 (single)

Mukai
Main Riff
e|--7--12-s-14--|--10--12--5--|--7-X--|
B|--7--12-s-14--|--10--12--5--|--7-X--|
G|--7--12-s-14--|-------------|--7-X--|
D|--7-----------|-------------|--7-X--|
A|--------------|-------------|-------|
E|--------------|-------------|-------|

Chorus
e|--0--0--0--|--0--|
B|--3--0--0--|--0--|
G|--2--2--2--|--2--|
D|--0--2--0--|--0--|
A|-----0--2--|--2--|
E|-----------|-----|

2nd Part/Ending
e|--0---0--|----------------------|--0--|
B|--0---0--|------------------12--|--0--|
G|--2---4--|------------------11--|--2--|
D|--2-s-4--|------------0h4-------|--0--|
A|--0---X--|--0h2-0h2-------------|--2--|
E|--0---0--|----------2-----------|-----|

Yoshikane
Main Riff
(rapidly pluck, bend and palm mute as so)
e|--19--|--19-------|--------------|----------17--14----------|
B|--19--|-----19----|--15-15-17----|--12--15----------15--13--|
G|------|--------16-|-----------14-|--------------------------|
D|------|-----------|--------------|--------------------------|
A|------|-----------|--------------|--------------------------|
E|------|-----------|--------------|--------------------------|

Chorus
e|-----------|-----|
B|-----------|-----|
G|--7--------|-----|
D|--7--7--9--|--9--|
A|--5--7--9--|--9--|
E|-----5--7--|--7--|

2nd Part
e|---------------------------------------10-----------|
B|--12-10-12-10-----12-12-10-12-12-10-12----12p10h12--|
G|--------------11------------------------------------|
D|----------------------------------------------------|
A|----------------------------------------------------|
E|----------------------------------------------------|

e|--14-15-14----14-14-19-19-19--|
B|-----------17-----------------|
G|------------------------------|
D|------------------------------|
A|------------------------------|
E|------------------------------|

e|--14-15-14----14-15-14----14-15-14----14-14-19-19-19--|
B|-----------17----------17----------17-----------------|
G|------------------------------------------------------|
D|------------------------------------------------------|
A|------------------------------------------------------|
E|------------------------------------------------------|

e|-----|
B|-----|
G|-----|
D|--9--|
A|--9--|
E|--7--|


0 Responses to “tab: hantoumei shoujo kankei (半透明少女関係)”



  1. Leave a Comment

Leave a Reply

Fill in your details below or click an icon to log in:

WordPress.com Logo

You are commenting using your WordPress.com account. Log Out / Change )

Twitter picture

You are commenting using your Twitter account. Log Out / Change )

Facebook photo

You are commenting using your Facebook account. Log Out / Change )

Google+ photo

You are commenting using your Google+ account. Log Out / Change )

Connecting to %s





%d bloggers like this: