tab: sekai ga owaru yoru ni (世界が終わる夜に)

Chatmonchy (チャットモンチー) - Sekai ga Owaru Yoru ni (世界が終わる夜に)
album: 生命力

TUNING: Half-note down (d# A# F# C# G# D#)

[Guitar I]
Intro
e|-----------------------15--14-------|
B|--------------s15--15----------15---|
G|----------12------------------------|
D|--12--14----------------------------|
A|------------------------------------|
E|------------------------------------|

e|-----------------------15--14-------------|
B|--------------s15--15---------15--12--15--|
G|----------12------------------------------|
D|--12--14----------------------------------|
A|------------------------------------------|
E|------------------------------------------|

e|---------------------------15--14--15--14---------|---------------|
B|------------------s15--15-----------------15--12--|---------------|
G|----------12--------------------------------------|--------12-----|
D|--12--14------12----------------------------------|--12-14----12--|
A|--------------------------------------------------|---------------|
E|--------------------------------------------------|---------------|

Chorus - Bridge
e|--------7-------------10--------|--0--3--0--2--|
B|----8-----8---8---8------8---8--|--1--0--3--3--|
G|--7---7-----7---7---7------7----|--0--0--0--2--|
D|--------------------------------|--2--0--2--0--|
A|--------------------------------|--0--2--3-----|
E|--------------------------------|--------------|

Outro
e|---------------------------------------|
B|--------------------------12---15------|
G|----------12----------12---------------|
D|--12--14------12--14---------------12--|
A|---------------------------------------|
E|---------------------------------------|

e|-------------------------------------------------|
B|--------------12------15--15--13-12-13-12--------|
G|----------12------12----------------------12-----|
D|--12--14-------------------------------------12--|
A|-------------------------------------------------|
E|-------------------------------------------------|

e|-------------------------------15--14------------------|
B|--------------12------15--s15----------15--12--15------|
G|----------12------12-------------------------------12--|
D|--12--14-----------------------------------------------|
A|-------------------------------------------------------|
E|-------------------------------------------------------|

e|-----15-14--------------|------------------------------|
B|--15-------15-12-15-----|---------------------12-------|
G|------------------------|--------12------s12------12---|
D|--------------------12--|--12-14-----12----------------|
A|------------------------|------------------------------|
E|------------------------|------------------------------|

[Guitar II]
Main - Bridge
Cadd9 G D
e|--0---3---2--|----------------------|
B|--3---0---3--|----------------------|
G|--0---0---2--|----------------------|
D|--2---0---0--|--7----9----10----12--|
A|--3---2------|----------------------|
E|------3------|--5----7----8-----10--|

Cadd9 G Cadd9 G Cadd9 G/B Cadd9 G Cadd9 G/B Am7 G Cadd9 G/B Am7 G Cadd9
e|--0--3--0--3--0--3--0--3--0--3--0--3--0--3--0--3--0--|
B|--3--0--3--0--3--0--3--0--3--0--1--0--3--0--1--0--3--|
G|--0--0--0--0--0--0--0--0--0--0--0--0--0--0--0--0--0--|
D|--2--0--2--0--2--0--2--0--2--0--2--0--2--0--2--0--2--|
A|--3--2--3--2--3--2--3--2--3--2--0--2--3--2--0--2--3--|
E|-----3-----3-----------3-----------3-----------3-----|


1 Response to “tab: sekai ga owaru yoru ni (世界が終わる夜に)”


  1. 1 moshi 06.13.2010 at 06:50 AM

    hi, thanks for the tab! really appreciate it… did you tab this?


Leave a Reply

Fill in your details below or click an icon to log in:

WordPress.com Logo

You are commenting using your WordPress.com account. Log Out / Change )

Twitter picture

You are commenting using your Twitter account. Log Out / Change )

Facebook photo

You are commenting using your Facebook account. Log Out / Change )

Google+ photo

You are commenting using your Google+ account. Log Out / Change )

Connecting to %s





%d bloggers like this: