tab: chie-chan’s landscape

Zazen Boys - CHIE-CHAN'S LANDSCAPE
Album: Zazen Boys II

Mukai: DROP D

Main Riff (added palm mute & delay/reverb effects later on)
e|------------------------------------|
G|-----------------------------8--10--|
B|-----------------7-----7--9---------|
D|-----------7--9-----9---------------|
A|-----5--7---------------------------|
D|--0---------------------------------|

Verse 2
e|--0--0--0--0----0----|
B|--0--0--0--0----0----|
G|--0--0--0--10---3----|
D|--5--7--9--10---3----|
A|--5--7--9--10---X----|
D|--5--7--9--10---3----|

Yoshikane

Main Sequence & Ending (listen to song/improvise on alterations)
e|-----------------------------------------------|
B|-----------------------------------------------|
G|-----------------------------------------------|
D|--s9--7--7h9p7---------------------------------|
A|----------------9--7--5---------------5--7--9--|
E|-------------------------s7--7--5--7-----------|

e|--------------------------------------------|
B|--------------------------------------------|
G|-----7h9h7-----7--7h9p7-----7--7h9p7-----7--|
D|--7---------9------------9------------9-----|
A|--------------------------------------------|
E|--------------------------------------------|

e|-------------------------------------------|
B|-------------------------------------------|
G|-------------------------------------------|
D|-------------------------------------------|
A|--9--7-7h9p7--5--5---------------5--7--9---|
E|--------------------s7--7--5--7------------|

e|------------------------------------------------|
B|------------------------10----------------------|
G|-----7h9p7-----7--9s11------11s9--9h11p9-----7--|
D|--7---------9-----------------------------9-----|
A|------------------------------------------------|
E|------------------------------------------------|

Verse II
G - A - Bm - C - Fm
e|--3---5---7---8----1----------------------|
B|--3---5---7---8----1----------------------|
G|--4---6---7---9----1----------------------|
D|--5---7---9---10---3----------------------|
A|--5---7---9---10---3----------------------|
E|--3---5---7---8----1----------------------|

2nd Sequences
(Palm Mute/Staccato Pluck)
e|---------------------------------7----|
B|--------------7-----------7--10-------|
G|--------7--9-----9--7--9--------------|
D|--7--9--------------------------------|
A|--------------------------------------|
E|--------------------------------------|

e|-----------------10--|
B|---------10--12------|
G|--9--11--------------|
D|---------------------|
A|---------------------|
E|---------------------|


0 Responses to “tab: chie-chan’s landscape”



  1. Leave a Comment

Leave a Reply

Fill in your details below or click an icon to log in:

WordPress.com Logo

You are commenting using your WordPress.com account. Log Out / Change )

Twitter picture

You are commenting using your Twitter account. Log Out / Change )

Facebook photo

You are commenting using your Facebook account. Log Out / Change )

Google+ photo

You are commenting using your Google+ account. Log Out / Change )

Connecting to %s





%d bloggers like this: