tab: poolside (プールサイド)

bloodthirsty butchers - Poolside (プールサイド)
Album: Mikansei (未完成)

this is how i do it.

Lead Riff
e|--10--12--10--12--10--------------|
B|----------------------12--10--12--|
G|----------------------------------|
D|----------------------------------|
A|----------------------------------|
E|----------------------------------|

Main Sequences
e|--3---2---0--|--2---3--|--3---3---3---3---|--3---0---2---0---|
B|--3---3---0--|--3---3--|--3---3---3---3---|--3---0---3---1---|
G|--0---0---0--|--0---0--|--0---0---2---0---|--0---0---4---0---|
D|--0---0---0--|--0---0--|--2---0---0---0---|--0---0---4---2---|
A|--2---0---2--|--0---2--|--3---2---0---0---|--2---2---2---3---|
E|--3---2---0--|--2---3--|--X---0---0---0---|--3---0---0---0---|
use some bar chords too

Bridge
e|----------------------------------|
B|----------------------------------|
G|----------------------------------|
D|--b7-7s9-9---7--------------------|
A|--------------7-7s4-4-b4-4-5s7s9--|
E|----------7-----------------------|
e|---------------------------------------------|
B|---------------------------------------------|
G|---------------b9-9s11-11-11s12-12-12s14-14--|
D|--7-b7-9-b9-9--------------------------------|
A|---------------------------------------------|
E|---------------------------------------------|
-this is a shorthand, listen to song for actual number of strokes or plucks


13 Responses to “tab: poolside (プールサイド)”


  1. 1 steve 03.25.2010 at 21:30 PM

    Good stuff! You should give Faust a try. I’ll work on it a bit myself but all the fuzz makes it tough to make certain parts out.

    • 2 roninbuddha 04.07.2010 at 17:01 PM

      i randomly figured out parts of Faust (or was it sankaku,, lol), either way… yeah, its in one of my to-do-lists

  2. 3 http://wiki.directvelo.com/index.php/Utilisateur:StarHerma 07.15.2013 at 05:13 AM

    My business is fond of your diamond and sapphire rings!
    Also the stackables. Wow… Where can we find everyone?
    Would like to come do a couple of shopping!😀 Now for most more “browsing”
    through your web site…. excited jiggle!

  3. 4 cinclis 06.19.2014 at 09:04 AM

    This paragraph will assist the internet users for building
    up new blog or even a blog from start to end.

  4. 5 sell your home fast 06.26.2014 at 12:23 PM

    Hello there! I could have sworn I’ve been to this web site before but after browsing through many
    of the articles I realized it’s new to me. Anyways, I’m certainly delighted I stumbled upon it and
    I’ll be book-marking it and checking back regularly!

  5. 6 Elliott 07.30.2014 at 12:01 PM

    Hi there to every one, the contents existing at this website
    are in fact awesome for people experience, well, keep up the good work fellows.

  6. 7 Demetria 08.13.2014 at 22:44 PM

    Why visitors still use to read news papers when in this
    technological world all is accessible on web?

  7. 8 tattoos 08.15.2014 at 12:39 PM

    hello!,I really like your writing so a lot! share we
    keep up a correspondence more about your article on AOL? I need a specialist on this house to resolve my problem.
    Maybe that is you! Looking forward to see you.

  8. 9 chronograph watch t49868 07.31.2016 at 02:38 AM

    You’re so awesome! I do not suppose I have read through something like this
    before. So great to discover another person with some unique thoughts on this topic.
    Seriously.. many thanks for starting this up. This web site is something that is required on the internet,
    someone with a bit of originality!

  9. 10 frame backpacks 10.15.2016 at 23:27 PM

    Woh I like your articles, saved to fav!


  1. 1 xe hơi Trackback on 10.20.2014 at 00:46 AM
  2. 2 xe audi q5 2014 gia bao nhieu Trackback on 10.21.2014 at 21:37 PM
  3. 3 xem xe audi r8 Trackback on 10.23.2014 at 20:53 PM

Leave a Reply

Fill in your details below or click an icon to log in:

WordPress.com Logo

You are commenting using your WordPress.com account. Log Out / Change )

Twitter picture

You are commenting using your Twitter account. Log Out / Change )

Facebook photo

You are commenting using your Facebook account. Log Out / Change )

Google+ photo

You are commenting using your Google+ account. Log Out / Change )

Connecting to %s





%d bloggers like this: