tab: iiwake maybe (言い訳Maybe)


AKB48 - Iiwake Maybe (言い訳Maybe)
Album: 言い訳Maybe & 神曲たち

Capo: None
Key: D

INTRO

Opening Key
Dsus
e|--X--|
B|--8--|
G|--7--|
D|--7--|
A|--5--|
E|--X--|

Main Riff
e|-----------------------------------------10------|
B|--8---10---8---8---10---8---8---10-8-7-8----8----|
G|----7----7---7---7----7---7---7---------------7--|
D|-------------------------------------------------|
A|-------------------------------------------------|
E|-------------------------------------------------|

e|-------8-------8-------8-----8-7---7---|
B|-----8-------7-----8-----8-------8-----|
G|-7h8-----6h7-----7---7-----7-----------|
D|---------------------------------------|
A|---------------------------------------|
E|---------------------------------------|

Rhythm
G5 - D5 - E5 - B5 - C5 - D5 - G5
e|-------------------------------------|
B|-8-----------------------------------|
G|-7----7----9--------------------12---|
D|-5----7----9----9----10---12----12---|
A|------5----7----9----10---12----10---|
E|----------------7----8----10---------|

1ST VERSE

PartI
G5 - D5 - E5 - B5 - C5 - B5 - A5 - D5
e|---------------------------------------|
B|---------------------------------------|
G|-12----7----9-----------------------7--|
D|-12----7----9----9---10---9----7----7--|
A|-10----5----7----9---10---9----7----5--|
E|-----------------7---8----7----5-------|
*2nd Time around, use B5 instead of D5 for the last chord

Lead adlibs
e|--------------------------------------|
B|--7h8-7-8-10-----[8---8---10-(x3)]----|
G|-------------7-9-[--7---7--------]----|
D|--------------------------------------|
A|--------------------------------------|
E|--------------------------------------|

e|------------10------|-----------------------|
B|----8---7-8----8----|--8---10---8---10---8--|
G|--7---7----------7--|----7----7---7----7----|
D|--------------------|-----------------------|
A|--------------------|-----------------------|
E|--------------------|-----------------------|

e|--------------------|
B|--8---10---10-s-12--|
G|----7----7----s-11--|
D|--------------------|
A|--------------------|
E|--------------------|

Part II
C5 - D5 - B5 - E5 - D5
e|------------------------|
B|------------------------|
G|--5----7----4----9---7--|
D|--5----7----4----9---7--|
A|--3----5----2----7---5--|
E|------------------------|

A5 - B5 - C5 - C#5 - D5 - B5
e|-------------------------------|--------------|
B|--2----------------------------|--------------|
G|--2---4----5-----6----7----4---|--------------|
D|--0---4----5-----6----7----4---|--------------|
A|------2----3-----4----5----2---|--2--5--3--2--|
E|-------------------------------|--------------|
*Palm Mute until D5

CHORUS
C5 - D5 - B5 - E5 - D5
e|--------------------------|
B|--------------------------|
G|-5----7----4----9----7----|
D|-5----7----4----9----7----|
A|-3----5----2----7----5----|
E|--------------------------|

C5 - D5 - F#5 - B5
e|--------------------------|
B|--------------------------|
G|-5----7----------4--------|
D|-5----7----4-----4--------|
A|-3----5----4-----2--------|
E|-----------2--------------|

C5 - D5 - E5 - D#5 - D5 - C#5
e|-------------------------------|
B|-------------------------------|
G|-5----7----9-----8----7-----6--|
D|-5----7----9-----8----7-----6--|
A|-3----5----7-----6----5-----4--|
E|-------------------------------|

C5 - D5 - B5 - E5 - C5 - D5 - E5 - E5-D#5-D5
e|------------------------------------------------|
B|------------------------------------------------|
G|-5----7----4----9----5----7----9----9---8--7----|
D|-5----7----4----9----5----7----9----9---8--7----|
A|-3----5----2----7----3----5----7----7---6--5----|
E|------------------------------------------------|

C5 - D5 - C5 - B5 - D5
e|--------------------------|
B|--------------------------|
G|-5----7----5----4----7----|
D|-5----7----5----4----7----|
A|-3----5----3----2----5----|
E|--------------------------|

2ND VERSE

PartI
G5 - G5/F# - E5 - B5 - C5 - B5 - A5 - D5
e|---------------------------------------|
B|---------------------------------------|
G|-12---12----9-----------------------7--|
D|-12---12----9----9---10---9----7----7--|
A|-10----9----7----9---10---9----7----5--|
E|-----------------7---8----7----5-------|
*2nd Time around, use B5 instead of D5 for the last chord
(rest is the same as 1st Verse)

BRIDGE

Part I
e|----------10---------10--------|
B|----8---8----8---7------7------|
G|--7---7--------7---7------7----|
D|-------------------------------|
A|-------------------------------|
E|-------------------------------|

e|-------------------------------|
B|--8---10---10--8--10--12-12----|
G|----7----7-----9--11--12----12-|
D|-------------------------------|
A|-------------------------------|
E|-------------------------------|

e|--------------------------b15-14--------|
B|--12-12-12s17-17-15-17-15--------17-17--|
G|----------------------------------------|
D|----------------------------------------|
A|----------------------------------------|
E|----------------------------------------|

e|--------15--------------------------------------|
B|-----------------------16---------------17--15--|
G|--14s16----16-14------------------------16--14--|
D|-----------------17-16----14-12-14-14-----------|
A|------------------------------------------------|
E|------------------------------------------------|

Part II
CM7 - D - Bm - Em - - CM7 - D
e|-------2---2-----------------2--|
B|-------3---3-----------------3--|
G|-------2---4-----------------2--|
D|--2--------4-----2------2-------|
A|--3--------2-----2------3-------|
E|-----------2--------------------|

E5 - D#5 - D5 - C#5
e|----------------------|
B|----------------------|
G|--9-----8----7-----6--|
D|--9-----8----7-----6--|
A|--7-----6----5-----4--|
E|----------------------|

C5 - D5 - E5 - D#5 - D5 - C#5
e|-------------------------------|
B|-------------------------------|
G|-5----7----9-----8----7-----6--|
D|-5----7----9-----8----7-----6--|
A|-3----5----7-----6----5-----4--|
E|-------------------------------|

C5 - D5 - A5 - B5 - C5 - D5
e|-------------------------------|
B|------------2------------------|
G|--5----7----2---4----5-----7---|
D|--5----7----0---4----5-----7---|
A|--3----5--------2----3-----5---|
E|-------------------------------|

the rest is CHORUS into INTRO then end with Main Riff

END

All of these I think are enough for you to play along with the song, but there's a lot of guitar background leads in the ending section, still can't tab them accurately, lack of skill and patience i guess. Peace.

0 Responses to “tab: iiwake maybe (言い訳Maybe)”



  1. Leave a Comment

Leave a Reply

Fill in your details below or click an icon to log in:

WordPress.com Logo

You are commenting using your WordPress.com account. Log Out / Change )

Twitter picture

You are commenting using your Twitter account. Log Out / Change )

Facebook photo

You are commenting using your Facebook account. Log Out / Change )

Google+ photo

You are commenting using your Google+ account. Log Out / Change )

Connecting to %s





%d bloggers like this: