tab: nusumareta kuchibiru (盗まれた唇)


AKB48 - 盗まれた唇 (Nusumareta Kuchibiru)
Single: ポニーテールとシュシュ (2010)

Intro - Verse I
e|--14----------17--16--14----------14--|
G|------14--17--------------14--17------|
B|--------------------------------------|
D|--------------------------------------|
A|--------------------------------------|
E|--------------------------------------|

e|-------------------------|-------------------------|
G|-------------------------|--1--1--------1----------|
B|--11---7---9-------------|--0--2--2--4--0--0-------|
D|--11---7---9---(x2)------|--2--2--3--5--2--0--(x2)-|
A|--9----5---7-------------|--3--0--3--5--3--2-------|
E|-------------------------|--------1--3-----3-------|

Verse 2
e|-------------------------|---------------------------------|
G|--8--12--13----6---------|--8--12--13-13-12-----6--10--12--|
B|--9--13--14----7--4------|--9--13--14-14-12-6---7--10--12--|
D|--9--12--14----7--5------|--9--12--14-14-12-7---7--10--12--|
A|--7--11--12----5--5------|--7--11--12-11-11-7---5--8---10--|
E|------------------3------|------------------5--------------|

Chorus
e|----------------------------------|-------------------------|
G|----------------------------------|-------------------------|
B|-----8-10----------------------8--|-(12)--------------------|
D|--10-------10--9---8--7--6--8--8--|-(12)--------------------|
A|-----------10--10--8--8--6--8--6--|-(10)-11-8-10----8-------|
E|-----------8---7---6--5--4--6-----|--------------11---10-11-|

e|-----------------------------|----------------------|
G|-----------------------------|----------------------|
B|---------------------------3-|-(8)-------------5-3--|
D|--10--9---8--7----6--5--3--3-|-(8)-----5-3-5-3------|
A|--10--10--8--8----3--5--3--1-|-(6)-3-6--------------|
E|--8---7---6--5----4--3--1----|----------------------|

Bridge
Fm - Gm - G#m
e|--15-13-----------------------------|
G|--------16-15-16-15----------13-----|
B|--------------------15-12-15----12--|
D|------------------------------------|
A|------------------------------------|
E|------------------------------------|

Fm - Gm - G#m - Gm
e|--15-13----------------18-20-19----18----20-19--|
G|--------16-15-16-15-------------20----20--------|
B|--------------------15--------------------------|
D|------------------------------------------------|
A|------------------------------------------------|
E|------------------------------------------------|

Repeat Chorus x2

e|-------------*-----|
G|--7----------*--7--|
B|--8--8--10---*--8--|
D|--8--9--11---*--8--|
A|--6--9--11---*--6--|
E|-----7--9----*-----|

e|--11----------14--13--11----------11--|
G|------11--14--------------11--14------|
B|--------------------------------------|
D|--------------------------------------|
A|--------------------------------------|
E|--------------------------------------|

e|--11----------14--13--11--16--14--13--18--16--14--|
G|------11--14--------------------------------------|
B|--------------------------------------------------|
D|--------------------------------------------------|
A|--------------------------------------------------|
E|--------------------------------------------------|

end

0 Responses to “tab: nusumareta kuchibiru (盗まれた唇)”



  1. Leave a Comment

Leave a Reply

Fill in your details below or click an icon to log in:

WordPress.com Logo

You are commenting using your WordPress.com account. Log Out / Change )

Twitter picture

You are commenting using your Twitter account. Log Out / Change )

Facebook photo

You are commenting using your Facebook account. Log Out / Change )

Google+ photo

You are commenting using your Google+ account. Log Out / Change )

Connecting to %s





%d bloggers like this: