tab: ponytail to shushu (ポニーテールとシュシュ)

AKB48 - ポニーテールとシュシュ
Single: ポニーテールとシュシュ (2010)

Intro
I (Piano)
e|--6--2--4--2--4--6--2--4--|
B|--7--4--6--2--6--7--4--6--|
G|--8--4--6--3--6--8--4--6--|
D|--8--4--6--4--6--8--4--6--|
A|--6--2--4--4--4--6--2--4--|
E|-----------2--------------|

II
F# C# D#m A#7 B A#7 D#m D E -- A D
e|-------------------------------------|--------|
B|------6---7---------------7---7---9--|-----7--|
G|--3---6---8---7---8---7---8---7---9--|--6--7--|
D|--4---6---8---6---9---6---8---7---9--|--7--7--|
A|--4---4---6---8---9---8---6---5---7--|--7--5--|
E|--2-----------6---7---6--------------|--5-----|

Verse
I
GTR 1 (Palm Mute)
e|----------------------------------------------|
B|----------------------------------------------|
G|-----------1---7--7---------------------------|
D|--7--7--4--2---7--7--7---------------------0--|
A|--7--7--4--2---5--4--7------------0--2--4-----|
E|--5--4--2------5--5--0---0--2--4--------------|

e|-----------------------|
B|-----------------------|
G|--------------4--1-----|
D|--7--7--5--4--4--2--7--|
A|--7--7--5--4--2--2--7--|
E|--5--4--3--2--------5--|

GTR 2
A E F#m A D E - Em
e|--------------------|
B|-----9--------7--9--|
G|--6--9--2--6--7--9--|
D|--7--9--4--7--7--9--|
A|--7--7--4--7--5--7--|
E|--5-----2--5--------|

A E G F#7 B#m7 E7 A
e|-----------------------|
B|-----9--------3--------|
G|--6--9--4--3--2--1--6--|
D|--7--9--5--2--4--0--7--|
A|--7--7--5--4--2--2--7--|
E|--5-----3--2-----0--5--|

II
C#m7 F# (x2) B C#7sus4 C#7
e|-----------------------|
B|--5--------4--7--6-----|
G|--4--2-----4--6--4-----|
D|--6--4-x2--4--4--6-----|
A|--4--4-----2--4--4-----|
E|-----2-----------------|

Chorus
GTR 1
e|---------------------|----------------------|
B|---------------------|----------------------|
G|--8---4---6-------6--|--8---4---6---11--10--|
D|--8---4---6---4---6--|--8---4---6---11--11--|
A|--6---2---4---4---4--|--6---2---4---9---8---|
E|--------------2------|----------------------|

e|---------------------|------------------|
B|---------------------|--------------4---|
G|--8---4---6-------6--|--8---4---6---3---|
D|--8---4---6---4---6--|--8---4---6---4---|
A|--6---2---4---4---4--|--6---2---4---2---|
E|--------------2------|------------------|

GTR 2
D#m B C# F# (x3) D#m B C# BM7

Back to Intro II

Back to Chorus

Bridge
GTR1
I
e|---------------------------------------6--7--|
B|------------------------------6--7--9--------|
G|--7--6-----------7--6---6--8-----------------|
D|--------4--2--4------------------------------|
A|--5--4-----------5--4------------------------|
E|--------2--2--2------------------------------|

*these are based on the "synth horn" section*

e|--6-7-6-9-9-11-9-14-14-16-14-18-16-14-----|
B|--------------------------------------14--|
G|------------------------------------------|
D|------------------------------------------|
A|------------------------------------------|
E|------------------------------------------|

e|-----------------------------------------------------------13---|
B|-----------------------------------------------14-15-15-16------|
G|-----11-11-13-11----11-13-13-15-13-13-13-13s15------------------|
D|--13-------------13---------------------------------------------|
A|----------------------------------------------------------------|
E|----------------------------------------------------------------|

GTR 2
D C# (x2) - F C# D#m A# B G#7 C# A#7

II
GTR 1
e|-------------------------|------------------------------------|
B|-------------------------|------------------------------------|
G|--8--8--6--5-------------|--11--11--11--11---12--12--12--12---|
D|--8--8--6--6--6--11--11--|--11--11--11--11---12--12--12--12---|
A|--6--5--4--3--6--11--11--|--9---8---9---11---10--9---10--12---|
E|-----------0--4--8---9---|------------------------------------|

GTR 2
D#m F# G#7 G#m7 G#7 C#sus4 C# C#sus4 C# D

Last Verse Outro
*Move everything 1 FRET HIGHER / CAPO on 1*
Back to Chorus

Back to Intro II
*end with
D# F G
e|-------------|
B|-------------|
G|--8--10--12--|
D|--8--10--12--|
A|--6--8---10--|
E|-------------|

LALALALALALALA~

0 Responses to “tab: ponytail to shushu (ポニーテールとシュシュ)”



  1. Leave a Comment

Leave a Reply

Fill in your details below or click an icon to log in:

WordPress.com Logo

You are commenting using your WordPress.com account. Log Out / Change )

Twitter picture

You are commenting using your Twitter account. Log Out / Change )

Facebook photo

You are commenting using your Facebook account. Log Out / Change )

Google+ photo

You are commenting using your Google+ account. Log Out / Change )

Connecting to %s





%d bloggers like this: