tab: wagamama na nagareboshi (わがままな流れ星)


AKB48 - わがままな流れ星
Album: AKB48 チームK 5th Stage 「逆上がり」

Intro
I
e|---------------------------------|
B|---------------------------------|
G|--14-------------------------11--|
D|--14----------10--14--9--13------|
A|--12---9--12---------------------|
E|---------------------------------|

E - G5 - A5 - C5 - E - G5 - A5 - B5
e|----------------------------------|
B|----------------------------------|
G|--9-------------------------------|
D|--9---5---7---10---2---5---7---9--|
A|--7---5---7---10---2---5---7---9--|
E|--0---3---5---8----0---3---5---7--|

II (Main)
GTR 1
E - C5 - G5 - D5 - B5 - C5 - F#5 - B5
e|----------------------------------|
B|----------------------------------|
G|--9------------7---4---5-------4--|
D|--9---10---5---7---4---5---4---4--|
A|--7---10---5---5---2---3---4---2--|
E|------8----3---------------2------|

E - C5 - G5 - D5 - B5 - C5 - F#5 - B5
e|----------------------------------------|
B|----------------------------------------|
G|--9------------7---4---5----------------|
D|--9---10---5---7---4---5---4---7--8--9--|
A|--7---10---5---5---2---3----------------|
E|------8----3---------------2---5--6--7--|

GTR 2 (Synth)
e|---------------7----------------------------------------|
B|--8-8-8-8-8-10---10-----7-8-10-8--------------8-7-8-10--|
G|--------------------7-7---------------------9-----------|
D|---------------------------------10-10-9-10-------------|
A|--------------------------------------------------------|
E|--------------------------------------------------------|

e|---------------7-----------------------------------|
B|--8-8-8-8-8-10---10-----7-8-10-8---------10-11-12--|
G|--------------------7-7--------------11------------|
D|---------------------------------10----------------|
A|---------------------------------------------------|
E|---------------------------------------------------|

Verse 1/2
I
GTR1
E5 - D5 - C5 - D5 - G5
e|---------------------------------------------|
B|---------------------------------------------|
G|--9---7---5---7---------------------------4--|
D|--9---7---5---7---5--------------------4-----|
A|--7---5---3---5---5--------3--7--2--6--------|
E|------------------3---2--5-------------------|

II
E5 - D5 - C5 - B5 - D5 - E5 / C5 - A5 - B5 - E5 - C5 - A5 - B5
e|-------------------------|-----------------------------|
B|-------------------------|-----------------------------|
G|--9---7---5---4---7---9--|--5---------------5----------|
D|--9---7---5---4---7---9--|--5---7---9---2---5---7---9--|
A|--7---5---3---2---5---7--|--3---7---9---2---3---7---9--|
E|-------------------------|------5---7---0-------5---7--|

Chorus (Intro/Main)
GTR 1
E - C5 - G5 - D5 - B5 - C5 - F#5 - B5
e|----------------------------------|
B|----------------------------------|
G|--9------------7---4---5-------4--|
D|--9---10---5---7---4---5---4---4--|
A|--7---10---5---5---2---3---4---2--|
E|------8----3---------------2------|

E - C5 - G5 - D5 - B5 - C5 - F#5 - B5
e|----------------------------------|
B|----------------------------------|
G|--9------------7---4---5-------4--|
D|--9---10---5---7---4---5---4---4--|
A|--7---10---5---5---2---3---4---2--|
E|------8----3---------------2------|

E - G5 - A5 - C5 - E - G5 - A5 - B5
e|----------------------------------|
B|----------------------------------|
G|----------------------------------|
D|--2---5---7---10---2---5---7---9--|
A|--2---5---7---10---2---5---7---9--|
E|--0---3---5---8----0---3---5---7--|
*Move to Bridge at 2nd Chorus

E - C5 - G5 - D5 - B5 - C5 - F#5 - B5
e|----------------------------------|
B|----------------------------------|
G|--9------------7---4---5-------4--|
D|--9---10---5---7---4---5---4---4--|
A|--7---10---5---5---2---3---4---2--|
E|------8----3---------------2------|

E - C5 - G5 - D5 - B5 - C5 - F#5 - B5
e|----------------------------------------|
B|----------------------------------------|
G|--9------------7---4---5----------------|
D|--9---10---5---7---4---5---4---7--8--9--|
A|--7---10---5---5---2---3----------------|
E|------8----3---------------2---5--6--7--|

Bridge
GTR1
e|--------------------------------------|
B|--------------------------------------|
G|--------------------------------------|
D|--------------------------------------|
A|--5h7-7-7-5-7-7-5-7-5h7p5-7s10-9-7-5--|
E|--------------------------------------|

e|-----------------------------------|
B|-----------------------------------|
G|-----------------------------------|
D|-----------------------------------|
A|--5h7-7-7-5-7-7-5-7-5h7p5----------|
E|--------------------------7-5-7-7--|

e|--------------------------------------|
B|--------------------------------------|
G|--------------------------------------|
D|--------------------------------------|
A|--5h7-7-7-5-7-7-5-7-5h7p5-7s10-9-7-5--|
E|--------------------------------------|

e|------------------------------|
B|------------------------------|
G|------------------------------|
D|---------------------------9--|
A|--5h7-7-7-5-7-7-5-7-5h7p5--9--|
E|---------------------------7--|

GTR2 (Lead)
e|--------------s17-15-14-15-14h15p14---------|
B|--------17-19-----------------------17--15--|
G|--16-19-------------------------------------|
D|--------------------------------------------|
A|--------------------------------------------|
E|--------------------------------------------|

e|------b17-------------------------------------------------|
B|--b18-----b18-18-17-15------------------------------------|
G|-----------------------16-14----b15p14h15p14h15p14--------|
D|-----------------------------17--------------------14-17--|
A|----------------------------------------------------------|
E|----------------------------------------------------------|

e|-------------------------------------------------15-17-18-19--|
B|----------------------------------------------17--------------|
G|--15-16(x4)--b15-15-12-12p9-12-9-12--------14-----------------|
D|------------------------------------s14-17--------------------|
A|--------------------------------------------------------------|
E|--------------------------------------------------------------|

Back to Chorus/Main

Outro Riff
GTR 1
F#5 - B5 - E5
e|--------------------------------------------|
B|--------------------------------------------|
G|--------------------------------------------|
D|-----7--8--9--7--8--9--9--8--7--5-----------|
A|--9--------------------------------7--5--7--|
E|--------------------------------------------|

GTR 2
e|------------------------------------------------|
B|------------------------------------------------|
G|------14-15-16--14-15-16--16-15-14-12-----------|
D|--16----------------------------------14-12-14--|
A|------------------------------------------------|
E|------------------------------------------------|

END

卒業おめでとう、えれぴょん
卒業おめでとう、えれぴょん (ノ_-。)

0 Responses to “tab: wagamama na nagareboshi (わがままな流れ星)”



  1. Leave a Comment

Leave a Reply

Fill in your details below or click an icon to log in:

WordPress.com Logo

You are commenting using your WordPress.com account. Log Out / Change )

Twitter picture

You are commenting using your Twitter account. Log Out / Change )

Facebook photo

You are commenting using your Facebook account. Log Out / Change )

Google+ photo

You are commenting using your Google+ account. Log Out / Change )

Connecting to %s





%d bloggers like this: