tab: tsundere! (ツンデレ!)


AKB48 - ツンデレ!
Album - チームA 5th Stage「恋愛禁止条例」

Intro
Main Gtr
e|---------------------|--------------------|
B|---------------------|--------------------|
G|---------------------|--------------------|
D|---------------------|--------------------|
A|---------------------|-----------------7--|
E|--0---3---5---8---7--|--0--3---5---8------|

e|---------------------|--------------------------|
B|---------------------|----------------(4)---12--|
G|---------------------|--------------5--4----11--|
D|---------------------|--------------5--4----9---|
A|---------------------|--7--6--5--4--3--2----9---|
E|--0---3---5---8---7--|--------------------------|

e|---------------------------------|
B|---------------------------------|
G|----------------------------9----|
D|--2--b5---b5---b5---b5-2---------|
A|--2--------------------2----7----|
E|--0--b3p0-b3p0-b3p0-b3p0---------|

Syth Horn melody/riff
e|------------------------------------------------|
B|--11-12-11-12-11-12-12p11----10----12-------10--|
G|--------------------------12----12-----9-12-----|
D|------------------------------------------------|
A|------------------------------------------------|
E|------------------------------------------------|

e|-----------------------------------------------12--|
B|--11-12-11-12-11-12-12p11----10----12-------12-----|
G|--------------------------12----12-----9-12--------|
D|---------------------------------------------------|
A|---------------------------------------------------|
E|---------------------------------------------------|

Verse *in these parts, use a lot of accents*
Main GTR
I
Em - Am - B | Em - Am - B - E6 - D6 - E6
e|-----------|--------------------|
B|--8--------|--8-----------------|
G|--9--5--8--|--9--5--8--9--7--9--|
D|--9--7--9--|--9--7--9--9--7--9--|
A|--7--7--9--|--7--7--9--7--5--7--|
E|-----5--7--|-----5--7-----------|

II
e|------------|---------------------------------------|
B|--12--8-----|---------------------------------------|
G|--11--9--6--|---------------------------------------|
D|--9---9--6--|--9----7-8-9---7-8-9---7-8-9--7--8--9--|
A|--9---7--4--|--9--9-------9-------9--------7--8--9--|
E|------------|--7---------------------------5--6--7--|
*after this, do slidedown/strum

Chorus
Main Gtr
I
e|------------------------------|
B|------------------------------|
G|--9------12--------4--8-9-11--|
D|--9--10--12--7--4--4--8-9-11--|
A|--7--10--10--7--4--2--6-7-9---|
E|-----8-------5--2-------------|
*alternatively: Em - C - A - F# - B

II-1
Main Gtr
e|-------------|
B|-------------|
G|--5--7--9-9--|
D|--5--7--9-X--|
A|--3--5--7-7--|
E|-------------|

II-2
Main Gtr
e|--b18-17p15h17p15-----------------------------------|
B|----------------------------------------------------|
G|-----------------------7----------------------------|
D|-------------------7s9---9-7---------------------7--|
A|-----------------------------10-7-----------7-10----|
E|----------------------------------10-5-7-10---------|

Synth
e|------------------|
B|--15--14--12------|
G|--------------14--|
D|--12--11--9-------|
A|--------------12--|
E|------------------|

back to Verse

Back to Chorus-I

(2nd) Chorus-II
Main Gtr
e|-------------------------------|
B|-------------------------------|
G|--5--7---------7--------7--s9--|
D|--5--7---9-7-5---9-7-5---------|
A|--3--5------------------5--s7--|
E|-------------------------------|

Bridge
Main Gtr
e|-----------------------------------------------|
B|-----------------------------------------------|
G|--5---7-----------5---7------------------------|
D|--5---7---2---5---5---7---9-8-9----------------|
A|--3---5---2---5---3---5---9-8-9-(a few times)--|
E|----------0---3-----------7-6-7----------------|

Synth
e|----------------------------|
B|----------------------------|
G|-----9--12--16--14--12--14--|
D|--9-------------------------|
A|-----7--10--14--12--10--12--|
E|--7-------------------------|

e|----------------------------|
B|----------------------------|
G|-----9--12--16--14--12--12--|
D|--9-------------------------|
A|-----7--10--14--12--10--10--|
E|--7-------------------------|

e|---------------------------------------------|
B|---------------------------------------------|
G|-----9--12--16--14--12--14--(16-15)--12--11--|
D|--9--------------------------------------9---|
A|-----7--10--14--12--10--12--(14-13)--10--9---|
E|--7------------------------------------------|
(a few times)

back to Verse-II

back to Chorus

Back to Intro

end with E6

tsun~

あみなちゃん<3

0 Responses to “tab: tsundere! (ツンデレ!)”



  1. Leave a Comment

Leave a Reply

Fill in your details below or click an icon to log in:

WordPress.com Logo

You are commenting using your WordPress.com account. Log Out / Change )

Twitter picture

You are commenting using your Twitter account. Log Out / Change )

Facebook photo

You are commenting using your Facebook account. Log Out / Change )

Google+ photo

You are commenting using your Google+ account. Log Out / Change )

Connecting to %s





%d bloggers like this: