tab: kuchi utsushi no chocolate (口移しのチョコレート)


AKB48 - 口移しのチョコレート
Album - チームB 4th Stage「アイドルの夜明け」

[INTRO I]
GTR1 | GTR2
e|--------------|--------------|
B|--------------|---12---------|
G|--16----------|-------11-----|
D|------16------|-----------9--|
A|----------14--|--------------|
E|--------------|--------------|
*Palm Mute

C - D - Bm - Em
e|----------------------------------|
B|--5------8p7----------7----8p7----|
G|----5--------7------7----------9--|
D|------------------9---------------|
A|----------------------------------|
E|----------------------------------|

C - D - Bm - B
e|--------------------------------------|
B|--5------8p7----------7-----------12--|
G|----5--------7------9----------11-----|
D|------------------9----------9--------|
A|---------------------------9----------|
E|--------------------------------------|

C - D - Bm - Em
e|----------------------------------|
B|--5------8p7----------7----8p7----|
G|----5--------7------7----------9--|
D|------------------9---------------|
A|----------------------------------|
E|----------------------------------|

C - D - Em - C - Am - D
e|-------------------------------------------|
B|--5------8p7----------7-------5------5--7--|
G|----5--------7------9-------7------5----7--|
D|------------------9-----(7)------7------7--|
A|-------------------------0-----------------|
E|-------------------------------------------|

[INTRO II][MAIN RIFF]
GTR1
e|--7-5-7----7-5-7----7-5-7----|--------------|
B|--------8--------8--------8--|--8--7--5-----|
G|-----------------------------|--------------|
D|-----------------------------|-----------7--|
A|-----------------------------|--------------|
E|-----------------------------|--------------|

GTR2
Em - Cmaj7 - G - (D)
e|----------------|-------------------------|
B|----------------|-------------------------|
G|--9----4--------|---------5--7-8-7--5-----|
D|--9----5----5---|------7--------------7---|
A|--7----3----5---|---7---------------------|
E|------------3---|-------------------------|

GTR1
e|--7-5-7----7-5-7----7-5-7----|--------------|
B|--------8--------8--------8--|--8--7--5-----|
G|-----------------------------|--------------|
D|-----------------------------|-----------7--|
A|-----------------------------|--------------|
E|-----------------------------|--------------|

GTR2
Em - Cmaj7 - G - (D)
e|----------------|-----------------10s14--12--|
B|----------------|----------------------------|
G|--9----4--------|---------5--7-8-------------|
D|--9----5----5---|------7---------------------|
A|--7----3----5---|---7------------------------|
E|------------3---|----------------------------|

[VERSE I]
Em - D - Cmaj7 - D
e|--7---5---------3---5--------|
B|--8---7---7-----5---7---7----|
G|--9---7-7---7---4---7-7---7--|
D|--9---7---------5---7--------|
A|--7---5---------3---5--------|
E|-----------------------------|

Em - D - Cmaj7 - D
e|--7---5---------3---5--------5------|
B|--8---7---7-----5---7---7------8-7--|
G|--9---7-7---7---4---7-7---7---------|
D|--9---7---------5---7---------------|
A|--7---5---------3---5---------------|
E|------------------------------------|

(Em - D - Cmaj - D)
e|--(7)--7-------8--10--8--7-----|
B|--(8)----8---8--------------8--|
G|--(9)------9-------------------|
D|--(9)--------------------------|
A|--(7)--------------------------|
E|-------------------------------|
*few times

(Em - D - Cmaj - D - Bm)
e|--(7)--7-------8--10--10--------------|
B|--(8)----8---8--------10--8--7--------|
G|--(9)------9--------------------9--7--|
D|--(9)---------------------------------|
A|--(7)---------------------------------|
E|--------------------------------------|

[VERSE II]
Bm - Cmaj7
e|--7--8----------------------|
B|--7--8---------12-10--------|
G|--7--9----9-12-------12-11--|
D|--9--9---9------------------|
A|--9--10---------------------|
E|--7--8----------------------|

Bm - Cmaj7
e|--7--8---------------------------|
B|--7--8---------10----10-12-(12)--|
G|--7--9----9-12----12-------------|
D|--9--9---9-----------------------|
A|--9--10--------------------------|
E|--7--8---------------------------|

C - D - B
e|--3---5---2--|
B|--5---7---4--|
G|--5---7---4--|
D|--5---7---4--|
A|--3---5---2--|
E|-------------|

[CHORUS]
Cmaj - D - Bm - Em
e|--3---5----------7---7--7---------|
B|--5---7--8p7-----7---8----10-8-7--|
G|--4---7------7---7---9------------|
D|--5---7----------9---9------------|
A|--3---5----------9---7------------|
E|-----------------7----------------|

Cmaj - D - Bm - B
e|--3---5----------7-------------|
B|--5---7--8p7-----7---------12--|
G|--4---7------7---7------11-----|
D|--5---7----------9----9--------|
A|--3---5----------9--9----------|
E|-----------------7-------------|

Cmaj - D - Bm - Em
e|--3---5----------7---7--7---------|
B|--5---7--8p7-----7---8----10-8-7--|
G|--4---7------7---7---9------------|
D|--5---7----------9---9------------|
A|--3---5----------9---7------------|
E|-----------------7----------------|

Cmaj - D - Em - (D) - Cmaj7 - Bm - Am - D
e|--3---5---7---(5)---3---2---5---5--|
B|--5---7---8---(7)---5---3---5---7--|
G|--4---7---9---(7)---4---4---5---7--|
D|--5---7---9---(7)---5---4---7---7--|
A|--3---5---7---(5)---3---2---7---5--|
E|----------------------------5------|

back to [MAIN RIFF]

back to [VERSE I]

back to [VERSE II]

back to [CHORUS]

[BRIDGE I]
Em - Cmaj7 - G - D
e|---------------------------10----10----14----(10)--|
B|--------------7--8--7---10----10----10----10-------|
G|--------7--9---------------------------------------|
D|--9--7---------------------------------------------|
A|---------------------------------------------------|
E|---------------------------------------------------|

Em - Cmaj7
e|---------------12--14--15-14-12------|
B|--*12--13--15--------------------15--|
G|---12--12----------------------------|
D|-------------------------------------|
A|-------------------------------------|
E|-------------------------------------|
*strum fast a few time

D - B(High)
e|------------------------------------11---19--|
B|--13-12h13p13---------------12--13--12---19--|
G|--------------14-12--12s14-------------------|
D|---------------------------------------------|
A|---------------------------------------------|
E|---------------------------------------------|

[BRIDGE II]
C - D - Bm - Em
e|----------------------------------7---------|
B|--5------8p7----------7---------8---10-8-7--|
G|----5--------7------7---7-----9-------------|
D|------------------9---------9---------------|
A|--------------------------------------------|
E|--------------------------------------------|

C - D - Bm - B
e|--------------------------------------|
B|--5------8p7----------7-----------12--|
G|----5--------7------9----------11-----|
D|------------------9----------9--------|
A|---------------------------9----------|
E|--------------------------------------|

back to [CHORUS]

back to [MAIN RIFF]

[END]
GTR1 / GTR2
Bm - Cmaj7
e|--2---3---|--10--12---|
B|--3---5---|-----------|
G|--4---4---|-----------|
D|--4---5---|--9---10---|
A|--2---3---|-----------|
E|----------|-----------|

END

ゆきりん

ゆきりんのことが好きだから

1 Response to “tab: kuchi utsushi no chocolate (口移しのチョコレート)”


  1. 1 myaoism-Takeru 09.05.2010 at 00:06 AM

    nice tab dude

    lemme bookmark you!


Leave a Reply

Fill in your details below or click an icon to log in:

WordPress.com Logo

You are commenting using your WordPress.com account. Log Out / Change )

Twitter picture

You are commenting using your Twitter account. Log Out / Change )

Facebook photo

You are commenting using your Facebook account. Log Out / Change )

Google+ photo

You are commenting using your Google+ account. Log Out / Change )

Connecting to %s





%d bloggers like this: