tab: seifuku resistance (制服レジスタンス)


AKB48 - 制服レジスタンス
Album - チームK 6th Stage「RESET」

**DROP D TUNING**

[INTRO]
-slide-
D6 - E6 - A6 - D6
e|------------------------|
B|--------10--------------|
G|--7-----9------7-----7--|
D|--7-----7------7-----7--|
A|--5-----7------7-----5--|
D|---------------7--------|

Dm - C - Bb - C
e|-----------------------------------------8-8--|
B|----b9-8-------------b9-8--------------8------|
G|--7------10-9------7------10-9-9-10-11--------|
D|--------------10------------------------------|
A|----------------------------------------------|
D|----------------------------------------------|

Dm - C - G6 - A6 - Bb6 - C6
e|----------------8---8------------------------|
B|----b9-8--------------11-10-9----------------|
G|--7------10-9-9---9--------------------------|
D|--------------------------------5--7--8--10--|
A|--------------------------------5--7--8--10--|
D|--------------------------------5--7--8--10--|

[VERSE Part 1]
Dm - C - A - Dm - Dm - Esus - A - Dm
e|--5---5---5---5----5---10---5---5---|
B|--6---5---5---6----6---10---5---6---|
G|--7---7---6---7----7---9----6---7---|
D|--7---7---7---7----7---7----7---7---|
A|--x---x---x---x----x---7----x---x---|
D|--x---x---x---x----x---x----x---x---|
*repeat once

[VERSE Part 2]
Bb - Am - (G#) - Gm - A -- D6 - C#6 - C6 - B6 - A
e|----------------------------------------|
B|--------------6----------------------2--|
G|--10---10-----5---10----7--6--5--4---2--|
D|--10---10--6--5---10----7--6--5--4---2--|
A|--8----7---6--5---7-----5--4--3--2------|
D|--8----7---6--5---7---------------------|
(pluck Bb Am Gm A)

[CHORUS]
A - G/A - G - Csus - E - Bb - G - Csus - Fsus - F
e|----------------------------------------------|
B|--------------(6)---10----------(6)---11--11--|
G|---------------5----10-----------5----10--10--|
D|--7---5----5---5----10---8---5---5----10--10--|
A|--7---5----5---3----8----8---5---3----8---8---|
D|--7--(0)---5-------------8---5----------------|

A - G/A - G - Csus - D/C# - Dm - Bb - Csus - F
e|-------------------------------------------|
B|--------------(6)-----6----------(6)---10--|
G|---------------5---6--7-----------5----10--|
D|--7---5----5---5---7--7---8---5---5----10--|
A|--7---5----5---3---4--5---8---5---3----8---|
D|--7--(0)---5--------------8---5------------|

[CHORUS END 1]
Bb - C - Dm - Bb - C - Fsus - F
e|-------------------------------|
B|--3---5---6----3---5---11--10--|
G|--3---5---7----3---5---10--10--|
D|--3---5---7----3---5---10--10--|
A|--1---3---5----1---3---8---8---|
D|-------------------------------|

back to [VERSE Part 1]

back to [VERSE Part 2]

back to [CHORUS]

[CHORUS END 2]
Bb - C - Dm - Bb - C - C# - D#
e|-----------------------------|
B|--3---5---6----3---5---6--8--|
G|--3---5---7----3---5---6--8--|
D|--3---5---7----3---5---6--8--|
A|--1---3---5----1---3---4--6--|
D|-----------------------------|

[BRIDGE 1] (Synth)
Dm - C
e|--------------------------|
B|-------------8-6h8p6------|
G|----7-9-10-7---------9-7--|
D|--7-----------------------|
A|--------------------------|
D|--------------------------|

Bb - Am
e|--------------------------------|
B|---------------8---6---5--------|
G|----7-9-10-7-----7---7---7---7--|
D|--7----------7-------------7----|
A|--------------------------------|
D|--------------------------------|

Gm - Fm - Em - A
e|--------------------------------------|
B|----------------------8-6-s10-8-------|
G|----------5-7-7-6-7-9-----------10-9--|
D|--7-8-7-8-----------------------------|
A|--------------------------------------|
D|--------------------------------------|

A
e|----------------------|
B|----------------8-10--|
G|---------7-9-10-------|
D|--7-8-10--------------|
A|----------------------|
D|----------------------|

[BRIDGE 2] (GTR) *cut in early during [BRIDGE 1]
-slide-
A - Dm - Esus
e|---------------------------------|
B|---------------------------------|
G|---------------------------------|
D|--7------------------------------|
A|--7-------0----------------------|
D|--7---0-0---5-3-2-2-6-2-6-7-8-9--|

A - Dm
e|--------------------------|
B|--------------------------|
G|--------------------------|
D|----------------3-b5-3----|
A|------7-5-4-4h5--------5--|
D|--7-7---------------------|

Dm - Esus - A
e|-----------------------------|
B|-----------------------------|
G|-----------------------------|
D|------7-5-------6---6-7-8-9--|
A|--5-5-----8-7-7---7----------|
D|-----------------------------|

A
e|------------------------------------------|
B|------------------8-9-b9-b9-b9-9p8p6--10--|
G|----6---6-7-s9-10---------------------9---|
D|--7---7-----------------------------------|
A|------------------------------------------|
D|------------------------------------------|

back to [VERSE 2] (Palm Mute)

back to [CHORUS]

[CHORUS END 3]
Bb - C - Dm - Bb - C - Dm - C
e|---------------------------------8---8----------|
B|--3--5--6---3--5-----b9-8--------------11-10-8--|
G|--3--5--7---3--5---7------10-9-9---9------------|
D|--3--5--7---3--5--------------------------------|
A|--1--3--5---1--3--------------------------------|
D|------------------------------------------------|

G6 - A6 - Bb6 - C6 - D6 - F/E6 - F - C6 - D6 - C6 - D6
e|----------------------------------------|
B|----------------------------------------|
G|-----------5---7--9---10--5----7--5--7--|
D|--5--7--8--5---7--10--10--5----7--5--7--|
A|--5--7--8--3---5--7---8---3----5--3--5--|
D|--5--7--8-------------------------------|

END

聞き分けいい子なんて ~ なれやしない

0 Responses to “tab: seifuku resistance (制服レジスタンス)”



  1. Leave a Comment

Leave a Reply

Fill in your details below or click an icon to log in:

WordPress.com Logo

You are commenting using your WordPress.com account. Log Out / Change )

Twitter picture

You are commenting using your Twitter account. Log Out / Change )

Facebook photo

You are commenting using your Facebook account. Log Out / Change )

Google+ photo

You are commenting using your Google+ account. Log Out / Change )

Connecting to %s





%d bloggers like this: