tab: beginner

Guitar base version


AKB48 - Beginner
Single - Beginner

INTRO
Am
e|-------------------|--------------------------------|
B|-------------------|--------------------------------|
G|--13--14---17--14--|--------------------------------|
D|-------------------|--7--------7-----5--7--------7--|
A|--11--12---15--12--|--7--8--5--7--8-----7--8--5--7--|
E|-------------------|--5--------5--------5--------5--|

VERSE I
Am
e|---------------------------------------|--12--|
B|---------------------------------------|--10--|
G|---------------------------------------|--9---|
D|--7--------7-----5--7--------7--10--9--|------|
A|--7--8--5--7--8-----7--8--5--7---------|------|
E|--5--------5--------5--------5---------|------|

VERSE II
Am
e|-------------------------------|---------------------------|
B|-------------------------------|---------------------------|
G|-------------------------------|---------------------------|
D|--7--7--7---7--7--7---7--7--5--|-----------------0--2--10--|
A|--7--7--5---7--7--5---5--8--7--|--------0--2--3--------10--|
E|--5--5--5---5--5--5---5--5--5--|--1--3-----------------8---|

CHORUS I
Fm D# C# Cm Fm A#m G#m Gm Cm
e|-------------------------------|
B|-------------------------------|
G|--10--8--6--5------------------|
D|--10--8--6--5--3--8--6--5--10--|
A|--8---6--4--3--3--8--6--5--10--|
E|---------------1--6--4--3--8---|

Fm D# C# Cm Fm A# Cm
e|-------------------------|
B|-------------------------|
G|--10--8--6--5------------|
D|--10--8--6--5--3--8--10--|
A|--8---6--4--3--3--8--10--|
E|---------------1--6--8---|

CHOURUS II
Fm A#m Cm C#m D#
e|--------------------|
B|--------------------|
G|--------------------|
D|--3--8--10--11--13--|
A|--3--8--10--11--13--|
E|--1--6--8---9---11--|

POST-CHORUS
D#6 E6 F6 | Am
e|--------------------------|---------------------|
B|--------------------------|---------------------|
G|--8--9--10--------13--14--|---------------------|
D|--8--9--10--(x4)----------|--(7)--5h7p5h7p5h7~--|
A|--6--7--8---------11--12--|--(7)----------------|
E|--------------------------|--(5)----------------|

VERSE I

VERSE II

CHORUS I

BRIDGE I
C6 C#6 G#6
e|----------------------|
B|----------------------|
G|--------------11--13--|
D|--10--11--13----------|
A|--11--11--------------|
E|----------------------|

G#6 B6 E6 C#6 | G#6 B6 C#6 D#6
e|--------------|--------------|
B|--------------|--------------|
G|--------9--6--|--------6--8--|
D|--6--9--9--6--|--6--9--6--8--| (x2)
A|--6--9--7--4--|--6--9--4--6--|
E|--4--7--------|--4--7--------|

E6 A#6 D#6 G#6 C#6 D#6 C#/C
e|---------------------------|
B|---------------------------|
G|--9-----8-------6---8---5--|
D|--9--8--8--6----6---8---6--|
A|--7--8--6--6----4---6---3--|
E|-----6-----4---------------|

CHORUS I

CHORUS II

END
F6 A#6 C6 C#6 G#m Am
e|--------------------------|
B|--------------------------|
G|--10--------------13--14--|
D|--10--8--10--11-----------|
A|--8---8--10--11---11--12--|
E|------6--8---9------------|

guitar version
(vocal version will be done soon)

0 Responses to “tab: beginner”



  1. Leave a Comment

Leave a Reply

Fill in your details below or click an icon to log in:

WordPress.com Logo

You are commenting using your WordPress.com account. Log Out / Change )

Twitter picture

You are commenting using your Twitter account. Log Out / Change )

Facebook photo

You are commenting using your Facebook account. Log Out / Change )

Google+ photo

You are commenting using your Google+ account. Log Out / Change )

Connecting to %s





%d bloggers like this: