tab: love zuukyun (LOVEずっきゅん)


相対性理論 - LOVEずっきゅん
Album: シフォン主義

*Power chords/Bar Chords

Intro
*Em - A - D - Bm

*Em - A - Bm

e|-------------------------------------------|
B|-----7--9b9-9-7--9b9-9-7-------------------|
G|--9----------------------9-7-9------7------|
D|--------------------------------7h9---(9)--|
A|-------------------------------------------|
E|-------------------------------------------|

e|--7--|
B|--7--|
G|--7--|
D|--9--|
A|-----|
E|-----|

e|---------------5-------------------|
B|-----------5s7---7p5------3-s5------|
G|--4-4-7-4------------7--4----------|
D|-----------------------------------|
A|-----------------------------------|
E|-----------------------------------|

e|-------------------------------|
B|-------------------------------|
G|--6--7--9--7--6--7--6----------|
D|--7--7--7--7--7--7--7--7---9---|
A|-----------------------7---9---|
E|--------------------------(7)--|

e|-------------------------------|
B|--7-7-7-7--9s---7-7-7-7--------|
G|-------------------------9s----|
D|-------------------------------|
A|-------------------------------|
E|-------------------------------|

e|--7--7----7--7--|
B|--7--8----7--7--|
G|--7--7----7--9--|
D|--7--7----7--9--|
A|----------------|
E|----------------|

Chorus
*G - A - F# - Bm
(arpeggio)

e|-----------------------------------------|
B|-------------10--------------------------|
G|----7--9-b9------b9--7-9-7------7--------|
D|--9-------------------------7h9---9------|
A|-----------------------------------------|
E|-----------------------------------------|

Back to intro

Back to Chorus

2nd Chorus (Gtr 2)
e|----------------------|
B|----------------------|
G|--12---14---15---16---|
D|--12---14---14---16---|
A|--10---12---13---14---|
E|----------------------|

Ending
(repeat etc)

4 Responses to “tab: love zuukyun (LOVEずっきゅん)”


  1. 1 Cthulhu 12.01.2011 at 10:25 AM

    Nice awesome tab! thanks now i can play it!

  2. 2 Upcoming Events - Mission Trip 12.13.2012 at 17:12 PM

    It’s actually a nice and helpful piece of information. I am happy that you shared this useful information with us. Please keep us up to date like this. Thank you for sharing.

  3. 3 Online Casino 07.18.2013 at 22:23 PM

    Wow that was odd. I just wrote an really long comment but after I clicked submit my
    comment didn’t appear. Grrrr… well I’m not writing all that over again.
    Regardless, just wanted to say wonderful blog!

  4. 4 online casino 07.22.2014 at 09:11 AM

    Thank you a bunch for sharing this with all folks you really understand what you’re speaking approximately!
    Bookmarked. Kindly additionally consult with my website =).
    We could have a link trade arrangement between us


Leave a Reply

Fill in your details below or click an icon to log in:

WordPress.com Logo

You are commenting using your WordPress.com account. Log Out / Change )

Twitter picture

You are commenting using your Twitter account. Log Out / Change )

Facebook photo

You are commenting using your Facebook account. Log Out / Change )

Google+ photo

You are commenting using your Google+ account. Log Out / Change )

Connecting to %s





%d bloggers like this: