tab: himitsu girl’s top secret


Zazen Boys - HIMITSU GIRL'S TOP SECRET
CD: HIMITSU GIRL'S TOP SECRET

Mukai
*Drop D tuning

Basic Sequence
e|----------------------|
B|----------------------|
G|----------------------|
D|--------4--6------7---|
A|-----7----------------|
D|--4------------4------|

chord attacks
e|----------------------|
B|----------------------|
G|--4---6---------------|
D|--4---6---------------|
A|--5---4---------------|
D|--0---0---------------|

CASIOMAN
e|-------------|-----5--|--------|-----12~--|
B|--5-5--7--9--|--5-----|--------|-5~-------|
G|-------------|--------|--4--6--|----------|
D|-------------|--------|--------|----------|
A|-------------|--------|--------|----------|
E|-------------|--------|--------|----------|

1 Response to “tab: himitsu girl’s top secret”


  1. 1 Facebook Profile Picture 07.31.2013 at 11:49 AM

    The Magimix 11402 L’Espresso Automatic Espresso Machine is a great looking machine that allows you to make one or two cups of coffee at the same time. Choose a shade that is complimentary to your lipstick shade. You are tired of spending money for advertisement and need responsive subscribers.


Leave a Reply

Fill in your details below or click an icon to log in:

WordPress.com Logo

You are commenting using your WordPress.com account. Log Out / Change )

Twitter picture

You are commenting using your Twitter account. Log Out / Change )

Facebook photo

You are commenting using your Facebook account. Log Out / Change )

Google+ photo

You are commenting using your Google+ account. Log Out / Change )

Connecting to %s





%d bloggers like this: