tab: kurumi to dialogue (胡桃とダイアローグ)

AKB48 – 胡桃とダイアローグ (TEAM A)
Single: チャンスの順番

Chords: G#m — B — E — D#
e|---------------------------|
B|-------9----------9----8---|
G|-------8-----8----9----8---|
D|-------6-----9----9----8---|
A|------(6)----9----7----6---|
E|-------------7-------------|

G#m G#m G#m

どうしたいの?

G#m
胡桃を割ったら
B
堅い殻
E
その中に
D#
何がある?
G#m
心を開ければ
B
その先は
E D#
わかっているでしょう?

G#m G#m G#m
Do! Do!…Do!Do!

目と目が合った時
何かしら
感じたのよ
気配 消していても
鼓動が
伝わったわ
*G#m
少し離れた
場所で
あなたは
*G#m
そんな素振りも見せずに
cool

*G#m B

e|-----------------|
B|--9--------------|
G|-----8--------8--|
D|--------9--6--9--|
A|--------------9--|
E|--------------7--|

どうすればいい?

胡桃を割ったら
聴こえたわ
閉じ込めた
その声が…
真実 知ったら
もう元に
戻れなくなるでしょう?

Non!Non!…Non!Non!
その手に包まれて
ゆっくりと
弄ばれ
愛が揺れるように
悲鳴を
上げているわ
お構いなしに
力 入れたら
ちょっと抵抗できない

Yes!Yes!…Yes!Yes!

どうしたいの?

パパとかママには
内緒なの
いけないと
言われてた
夢ならそれでも
いいけれど
潰していいかな?

C#sus
e|-----------------------|
B|-------------11--------|
G|----------11----11-----|
D|-------11----------11--|
A|----11-----------------|
E|--9--------------------|

Do!Do!…Do!Do!

Bridge:

e|-------------------------------------------|
B|-------------------------------------------|
G|----------------------------------------4--|
D|--------------------------------------6----|
A|--------------4-----4-6---4-6-7-4-6-7------|
E|--4-6-7-4-6-7---6-7-----7------------------|


e|----------------6----------------------------------|
B|--------4-----7---9-9-9-7-7-7----------------------|
G|------4-----8-----------------9-9-9-8-8-8-6s8------|
D|--4-6-----9-----------------------------------9-8--|
A|---------------------------------------------------|
E|---------------------------------------------------|


e|-------------------------------------------|
B|--7-9-7------------------------------------|
G|--------9-8-6-------------------6-8--------|
D|--------------9-8-6-5-6-8-9-8-9-----9-8-9--|
A|-------------------------------------------|
E|-------------------------------------------|


e|-----------------------------------------|
B|----------7---------------------------8--|
G|--6---------------8-------8-----------8--|
D|----9-8-9---9-8-9---9-8-9----9--6-----8--|
A|-----------------------------------7--6--|
E|-----------------------------------------|

どうすればいい

胡桃を割ったら
始まるわ
粉々の
そのモラル
アダムとイブより
愚かでも
なぜだかしたくなる

胡桃を割ったら
堅い殻
その中に
何がある?
心を開ければ
禁じてた
何かが美味しい

Do!Do!…Do!Do!

e|---------------------------|
B|---------------------------|
G|---------------------------|
D|---------------------------|
A|--------4------------------|
E|--4-6-7---7-6-7-6-4-6-4-2--|


e|---------------------------|
B|---------------------------|
G|---------------------------|
D|---------------------------|
A|--------4---4-6-4-6-7-6-4--|
E|--4-6-7---7----------------|


e|---------------------------|
B|---------------------------|
G|---------------------------|
D|---------------------------|
A|--------4------------------|
E|--4-6-7---7-6-7-6-4-6-4-2--|


e|---------------------------|
B|---------------9-----------|
G|---------------8-----------|
D|---------------6-----------|
A|--------4-----(6)----------|
E|--4-6-7---7-6--------------|

Do!Do!…Do!Do!

End

0 Responses to “tab: kurumi to dialogue (胡桃とダイアローグ)”



  1. Leave a Comment

Leave a Reply

Fill in your details below or click an icon to log in:

WordPress.com Logo

You are commenting using your WordPress.com account. Log Out / Change )

Twitter picture

You are commenting using your Twitter account. Log Out / Change )

Facebook photo

You are commenting using your Facebook account. Log Out / Change )

Google+ photo

You are commenting using your Google+ account. Log Out / Change )

Connecting to %s





%d bloggers like this: