tab: shoujo wa manatsu ni nani wo suru? (少女は真夏に何をする?)

SKE48 – 少女は真夏に何をする?
Single: ごめんね、SUMMER (TYPE-A)

Rhythm Chords: PowerChord+Palm Mute/Arpeggio

INTRO
E – G# – B
e|-------------------|---------------|-----------------------------|
B|-------------------|---------------|-----------------------------|
G|-------------------|---------------|-----------------------------|
D|-------------------|---------------|-----------------------------|
A|--15~slide down----|--0-----3------|-----------------7--5--6--7--|
E|-------------------|-----0-----0---|--0~---4~---7~---------------|

MAIN/CHORUS
Am
e|-----------------------|---------------------------|
B|-----------------------|--3h5p3--------------------|
G|-----------------------|--------5-4----------------|
D|-----------------------|------------5-2------------|
A|-----------------------|----------------5-3-0-3-0--|
E|--5-3-5-0-3-4-5-5-3-5--|---------------------------|

D6 – D#6 – E6 – E6 – D6 – C6 – B6
e|-------------------------------------|-------------------|
B|-------------------------------------|-------------------|
G|-------------------------------------|--b9---9--7--5--4--|
D|-------------------------------------|--(9)--9--7--5--4--|
A|--0-3-4-5-(3-5-3-4-5)-6-(4-6-4-5-6)--|--(7)--7--5--3--2--|
E|-------------------------------------|-------------------|

(optional)

Am
e|-----------------------|-3h5-3--------------------|
B|-----------------------|-------5s3----------------|
G|-----------------------|-----------5-2------------|
D|-----------------------|---------------5-2-2-5----|
A|-----------------------|-----------------------0--|
E|--5-3-5-0-3-4-5-5-3-5--|--------------------------|

D6 – E6 – E – Am
e|-----------------------------------------------|
B|-----------------------------------------------|
G|-----------------------------------------------|
D|--------------------------7--7----5-6-7-5-6-7--|
A|--0-3-4-5--7-7-5-5--------7--7--7--------------|
E|-------------------0-0-0--5--5-----------------|

E
e|----------------|
B|----------------|
G|----------------|
D|----------------|
A|--X-slide down--|
E|--0~------------|

VERSE (use Tremolo)
e|--5--8-----7---5----5--|--3------5--4--|
B|--5----5---------5--5--|--5--5---5--5--|
G|--5------5---5------5--|--4--5---4--4--|
D|-----------------------|-----5---------|
A|-----------------------|---------------|
E|-----------------------|---------------|

Am – D6 – E6 – Am
e|--5--8-----7---5----5--|--7--5--4--5--|
B|--5----5---------5--5--|--8--5--5--5--|
G|--5------5---5------5--|--7--5--4--5--|
D|-----------------------|--------------|
A|-----------------------|--------------|
E|-----------------------|--------------|

C – Am – C
e|--------------------5--------------|
B|----------8-------5-------------8--|
G|--------9-------5-------------9----|
D|-----10-------7------------10------|
A|--10--------------------10---------|
E|-----------------------------------|

E – Esus7 – Bm – Am – G – F – E
e|------------------------------------------|
B|--9--10--12---13--12--10---9--------------|
G|--9--9---9----14--12--10---9--------------|
D|--9--9---9----14--12--10---9--------------|
A|--------------12--10--8----7---7-7-5-6-7--|
E|------------------------------------------|

back to MAIN/CHORUS

back to INTRO

back to VERSE

BRIDGE
(2nd Guitar: VERSE)
e|-------------------------------------------------------------|
B|-------------------------------------------------------------|
G|--------------------------------------------5-7-5-b7-b7-7-5--|
D|--------------------------------5-7-7-7-7-7------------------|
A|------------3-5-3-b5-b5-5-3-5s7------------------------------|
E|--5-5-5-5-5--------------------------------------------------|

e|-----------------------------------------|
B|--13--12--10--8--6--5--6--5--6--s10--9---|
G|--14--12--10--9--7--5--5--5--5--s9---9---|
D|-----------------------------------------|
A|-----------------------------------------|
E|-----------------------------------------|

(2nd Guitar: VERSE 3 Frets Higher)
e|------|-----------------------------------------------|
B|--13--|--15p13--*15--16--15--16--18--16--15--16--18~--|
G|--13--|-----------------------------------------------|
D|--13--|-----------------------------------------------|
A|------|-----------------------------------------------|
E|------|-----------------------------------------------|

*tapping pattern

e|----------------------13--15--16--15--16--15--16--15--|
B|--13--15--16--15--16--13--15--16--15--16--15--16--15--|
G|--13--15--15--15--15----------------------------------|
D|------------------------------------------------------|
A|------------------------------------------------------|
E|------------------------------------------------------|

back to 2nd Half of VERSE

*REST/PAUSE*

enter with
e|--------------|
B|--------------|
G|--9--7--5--4--|
D|--9--7--5--4--|
A|--7--5--3--2--|
E|--------------|

MAIN (Variation)
e|-----------------------|---------------------|
B|-----------------------|--3-5-5-5-3----------|
G|-----------------------|------------5-4------|
D|-----------------------|----------------5-2--|
A|-----------------------|---------------------|
E|--5-3-5-0-3-4-5-5-3-5--|---------------------|

e|-----------------------------------------|
B|-----------------------------------------|
G|-----------------------------------------|
D|--------------------------7--7-----------|
A|--0-3-4-5--7-7-5-5--------7--7-----------|
E|-------------------0-0-0--5--5--0--3--5--|

back to MAIN/CHORUS

back to INTRO

END
e|--------------------|
B|--------------------|
G|--------------------|
D|--7--7--5--7--5--7--|
A|--7--7--5--7--5--7--|
E|--5--5--3--5--3--5--|


0 Responses to “tab: shoujo wa manatsu ni nani wo suru? (少女は真夏に何をする?)”



  1. Leave a Comment

Leave a Reply

Fill in your details below or click an icon to log in:

WordPress.com Logo

You are commenting using your WordPress.com account. Log Out / Change )

Twitter picture

You are commenting using your Twitter account. Log Out / Change )

Facebook photo

You are commenting using your Facebook account. Log Out / Change )

Google+ photo

You are commenting using your Google+ account. Log Out / Change )

Connecting to %s





%d bloggers like this: