tab: toumei shoujo (透明少女)

NUMBER GIRL – 透明少女
Album: SCHOOL GIRL DISTORTIONAL ADDICT

HISAKO

INTRO
e|------|
B|--12--|
G|--11--|
D|--9---|
A|------|
E|------|

VERSE
e|-------------------------|
B|-------------------------|
G|-------------------------|
D|--9--11--9---16--18--16--|
A|--9--9---9---14--14--14--|
E|-------------------------|

VERSE 2
e|----------------|
B|----------------|
G|----------------|
D|--8----11----9--|
A|--9----13----9--|
E|----------------|

CHORUS
e|-------------------------|
B|-------------------------|
G|-------------------------|
D|------8---9-----------4--|
A|--6---6---7---9---4---2--|
E|--4-----------7---2------|

e|---------------------------------|
B|---------------------------------|
G|---------------------------------|
D|------8---9-------8--------------|
A|--6---6---7---9---6---8---7---9--|
E|--4-----------7-------6---5---7--|

BREAK
e|------|
B|--12--|
G|--11--|
D|--9---|
A|------|
E|------|

e|-------------------------|
B|-------------------------|
G|-------------------------|
D|--9--11--9---9--9--9--4--|
A|--9--9---9---6--7--6--6--|
E|-------------------------|

e|-------------------------|
B|-------------------------|
G|-------------------------|
D|--9--11--9---9--9--9--4--|
A|--9--9---9---6--7--6--6--|
E|-------------------------|

e|-----------------------|
B|-----------------------|
G|-----------------------|
D|------16---9--9--9--4--|
A|--14--14---6--7--6--6--|
E|-----------------------|

e|-------------------------|
B|-------------------------|
G|-------------------------|
D|--9--11--9---16--18--16--|
A|--9--9---9---14--14--14--|
E|-------------------------|

Back to VERSE 2

Back to CHORUS

END
e|-----|
B|-----|
G|-----|
D|-----|
A|--7--|
E|--5--|


MUKAI

CAPO 2nd FRET

Intro
e|--0--|
B|--0--|
G|--6--|
D|--6--|
A|-----|
E|--5--|

VERSE
e|--0----0--|
B|--0----0--|
G|--6----6--|
D|--6-------|
A|-------5--|
E|--5-------|

VERSE 2
e|--0---0---0--|
B|--0---0---0--|
G|--4---4---6--|
D|------4---6--|
A|--4----------|
E|------4---5--|

CHORUS
e|--0---0---0---0---0---0--|
B|--0---0---0---0---0---0--|
G|--2---4---6---6---1---2--|
D|--2-----------6---2---2--|
A|------4---5-------2---0--|
E|--2-----------5----------|

e|--0---0---0---0---0---0---0---0--|
B|--0---0---0---0---0---0---0---0--|
G|--2---4---6---6---4---4---4---2--|
D|--2-----------6-------4---4---2--|
A|------4---5-------4-----------0--|
E|--2-----------5-------4---3------|

BREAK
e|--0---0-----0-----0--|
B|--0---0-----0-----0--|
G|--2---2---0h2---2s4--|
D|--2---2--------------|
A|--0------------------|
E|------2--------------|

(Arpeggio)

e|-----------------|
B|-----------------|
G|--2-------4---6--|
D|--2---4---4---6--|
A|--0---4---2---4--|
E|------2----------|

Back to VERSE 2

Back to CHORUS

END
e|--0--|
B|--0--|
G|--5--|
D|--5--|
A|-----|
E|--3--|

0 Responses to “tab: toumei shoujo (透明少女)”



  1. Leave a Comment

Leave a Reply

Fill in your details below or click an icon to log in:

WordPress.com Logo

You are commenting using your WordPress.com account. Log Out / Change )

Twitter picture

You are commenting using your Twitter account. Log Out / Change )

Facebook photo

You are commenting using your Facebook account. Log Out / Change )

Google+ photo

You are commenting using your Google+ account. Log Out / Change )

Connecting to %s





%d bloggers like this: