tab: pajama drive (パジャマドライブ)

AKB48 – パジャマドライブ
Album: チームB 3rd Stage「パジャマドライブ」

INTRO/MAIN
A – Dm – Bb
e|---------------------------------------------------|
B|---------------------------------------------------|
G|---------------------------------------------------|
D|--7-------7--5--10--12--7--5--7--5--------5--------|
A|--5----5----------------------------5--8-----8--5--|
E|--5------------------------------------------------|

C – Bb – A
e|------------------------------------------------------------|
B|---------------------------------8s10--8------8-------------|
G|------------------------------------------10-----10--9------|
D|-----8s10--8--10--12--10--8--7--------------------------10--|
A|--7---------------------------------------------------------|
E|------------------------------------------------------------|

Dm – Bb
e|----------------------------------------------|
B|----------------------------------------------|
G|----------------------------------------------|
D|-----7--5--10--12--7--5--7--5--------5--------|
A|--5----------------------------5--8-----8--5--|
E|----------------------------------------------|

C – Bb – A
e|------------------------------------|
B|------------------------------------|
G|------------------------------------|
D|-----8s10--8--10--12--10--8--7---7--|
A|--7------------------------------7--|
E|---------------------------------5--|

VERSE-I (1)
e|-------------------------------|
B|--3---3---3---3-------------3--|
G|--2---2---2---2-------2-----2--|
D|--------------------0----0--0--|
A|--0---3---0---3---0---------0--|
E|-------------------------------|

VERSE-II
e|--------------------|
B|--------------------|
G|--------------------|
D|--9----6----9----6--|
A|--9----7----9----7--|
E|--7----4----7----4--|

VERSE-III
e|--------------------------------------|
B|--------------------------------------|
G|--12--11--9--11--9----11--9--7--9--7--|
D|--------------------------------------|
A|--10--9---7--9---7----9---7--5--7--5--|
E|--------------------------------------|

e|-------------------------------------|
B|-------------------------------------|
G|--10----11--12--14--11--12--14---14--|
D|-------------------------------------|
A|--8-----9---10--12--9---10--12---12--|
E|-------------------------------------|

CHORUS
e|--------------------------------------------|
B|----------------------10-11-10----10--------|
G|--7------------10--------------12----12-10--|
D|--7---8---10---10---------------------------|
A|--5---8---10---8----------------------------|
E|------6---8---------------------------------|

e|---------------------------------------------|
B|---------------------------------------------|
G|--7------------------------------------------|
D|--7---8---10---8----7-8-7-8-7-8-7-8-7-5-3-2--|
A|--5---8---10---8-----------------------------|
E|------6---8----6----5-6-5-6-5-6-5-6-5-3-1-0--|

BACK TO INTRO

VERSE-I (2)
e|----------------------------|
B|--3---3--------3--3---3--3--|
G|--2---2------2----2---2--2--|
D|---------0---------------0--|
A|--0---3----3------0---3--0--|
E|----------------------------|

BACK TO VERSE-II

BACK TO VERSE-III

BACK TO CHORUS

BRIDGE
e|----------------5--------------|
B|----------6--8-----8--6--5-----|
G|--7---5---------------------7--|
D|--7---5------------------------|
A|--5---3------------------------|
E|-------------------------------|

e|-----------------------------|
B|--3----3---------3-----3--3--|
G|--2------2---------2---2--0--|
D|-----0-------0---------0--0--|
A|---------------3-------0--0--|
E|-----------------------------|

e|---------------------------------------------------------------|
B|---------------------------------------------------------------|
G|---------10--7----15---------------12-13-14-15-14-15-14-15-13--|
D|--8--10--10--7------------12-14-15-----------------------------|
A|--8--10--8---5----13---15----------------12-13-12-13-12-13-12--|
E|--6--8---------------------------------------------------------|

CAR HORN
e|--5--|
B|--5--|
G|-----|
D|-----|
A|-----|
E|-----|

BACK TO CHORUS

BACK TO MAIN

MAIN-II
e|---------------------------------------------------|
B|-----10--8--13--15--10--8--10--8---------8---------|
G|--7-------------------------------7--10-----10--7--|
D|---------------------------------------------------|
A|---------------------------------------------------|
E|---------------------------------------------------|

e|-----------------------------------|
B|-----11s13-11--13--15--13--11--10--|
G|--9--------------------------------|
D|-----------------------------------|
A|-----------------------------------|
E|-----------------------------------|

e|--------------------------------------|-----|
B|--------------------------------------|-----|
G|--14-15-14-15-14-15-14-15-14-12-10-9--|--7--|
D|--------------------------------------|--7--|
A|--12-13-12-13-12-13-12-13-12-10-8--7--|--5--|
E|--------------------------------------|-----|

END
e|-----|
B|-----|
G|--5--|
D|--5--|
A|--5--|
E|--5--|

1 Response to “tab: pajama drive (パジャマドライブ)”


  1. 1 広州白馬服卸会社 08.04.2012 at 01:00 AM

    広州白馬服卸会社は長年婦人服、紳士服、下着、鞄、パジャマ、靴、チャイナドレス、ベルト、ペアルックなどの服卸売に努力しております。弊社は服装のデザイン、生産及び卸売を集大成した近代化私営企業で、デザインがファッショナブルで、品質が高く、価格も激安いです。1枚から卸売り、混入ロットでも可能、全世界宅配できます。毎日夜8:00以前支払いする方に必ずその日に出荷いたします。ご来店をお待ちしております。
    ホームページ:http://www.wjy5168.com
    MSN:womenbaima@hotmail.com
    E – Mail:wenzhichen513@hotmail.com
    電話番号:020-34344773


Leave a Reply

Fill in your details below or click an icon to log in:

WordPress.com Logo

You are commenting using your WordPress.com account. Log Out / Change )

Twitter picture

You are commenting using your Twitter account. Log Out / Change )

Facebook photo

You are commenting using your Facebook account. Log Out / Change )

Google+ photo

You are commenting using your Google+ account. Log Out / Change )

Connecting to %s





%d bloggers like this: