tab: heavy rotation (ヘビーローテーション)

AKB48 – ヘビーローテーション

Single – ヘビーローテーション

GUITAR 1 Rhythm

INTRO
e|---------------------------------|
B|-------------------------10--12--|
G|--9--8--11--9--8---9--8--9---11--|
D|--9--9--9---9--9---9--9--7---9---|
A|--7--7--7---7--7---7--7----------|
E|---------------------------------|

e|--------------------------|
B|--------------------------|
G|--9-----6--1--------------|
D|--9--6--6--2--4-5-6-7--9--|
A|--7--6--4--2--4-5-6-7--9--|
E|-----4--------2-3-4-5--7--|

e|--------------------|----------------------|
B|--------------2-----|----------------------|
G|--9--9--6--4--2--4--|--9--6-------------9--|
D|--9--9--6--4--2--4--|--9--6--7--9-(x2)--9--|
A|--7--8--4--2--0--2--|--7--4--7--9-------7--|
E|--------------------|--------5--7----------|

VERSE
e|--------------------------|
B|--------------2-----------|
G|--9-----6--4--2--4--------|
D|--9--6--6--4--2--4--(x2)--|
A|--7--6--4--2-----2--------|
E|-----4--------------------|

e|-----------------------------|
B|--------------------2--------|
G|--------9--9--6--4--2-----4--|
D|--7--9--9--9--6--4--2--4--4--|
A|--7--9--7--8--4--2-----4--2--|
E|--5--7-----------------2-----|

CHORUS
e|-----------------------|
B|-----------------------|
G|--9-----6--1-----------|
D|--9--6--6--2--4-5-6-7--|
A|--7--6--4--2--4-5-6-7--|
E|-----4--------2-3-4-5--|

e|-----------------------------|
B|--------------------2--------|
G|--------9--9--6--4--2-----4--|
D|--7--9--9--9--6--4--2--4--4--|
A|--7--9--7--8--4--2-----4--2--|
E|--5--7-----------------2-----|

e|-----------------------|
B|-----------------------|
G|--9-----6--1-----------|
D|--9--6--6--2--4-5-6-7--|
A|--7--6--4--2--4-5-6-7--|
E|-----4--------2-3-4-5--|

e|--------------------------|
B|--------------------2-----|
G|--------9--9--6--4--2--4--|
D|--7--9--9--9--6--4--2--4--|
A|--7--9--7--8--4--2-----2--|
E|--5--7--------------------|

e|---------------------------------|
B|-------------------------10--12--|
G|--9--8--11--9--8---9--8--9---11--|
D|--9--9--9---9--9---9--9--7---9---|
A|--7--7--7---7--7---7--7----------|
E|---------------------------------|

Back to VERSE

Back to CHORUS

Cut to
BRIDGE
e|------------------------------------|
B|------------------------------------|
G|--9--6---------9--9--6-----------9--|
D|--9--6--7--9---9--9--6--9--7--9--9--|
A|--7--4--7--9---7--8--4--9--7--9--7--|
E|--------5--7------------7--5--7-----|

e|----------------------------------7--------|
B|------------10p9--------------------9------|
G|----9---9--------9-------8---8--------8----|
D|--9---9---9--------9---6---6----6-------6--|
A|-------------------------------------------|
E|-------------------------------------------|

e|---------------------13-------------------|
B|---------12-------12----------------------|
G|------11-----s10--------------------------|
D|--------------------------11--13--14--11--|
A|--s9----------------------9---11--12--9---|
E|------------------------------------------|

e|-------------------------------------------|
B|-------------------------------------------|
G|---------9--9--8--6------------11--14--16--|
D|--7--10--9--9--8--6--7--10--9--------------|
A|--7--10--7--7--6--4--7--10--9--9---12--14--|
E|--5--8---------------5--8---7--------------|

Back to CHORUS

END

GUITAR 2 Lead

INTRO (Guitar 1)
e|---------------------------------|
B|-------------------------10--12--|
G|--9--8--11--9--8---9--8--9---11--|
D|--9--9--9---9--9---9--9--7---9---|
A|--7--7--7---7--7---7--7----------|
E|---------------------------------|

e|---------------------------|
B|--9-10p9--9-10p9--9--10p9--|
G|--9-------9-------9--------|
D|--9-------9-------11-------|
A|--7-------6-------11-------|
E|------------------9--------|

e|-----------------------------------------|
B|-----------------------------------------|
G|--11--13--11--9--8--9--11--12--13--14----|
D|-----------------------------------------|
A|--9---11--9---7--6--7--9---10--11--12----|
E|-----------------------------------------|

e|----------------------------------|
B|-----b10--------------------------|
G|--b9-----b9-9----9--9--6--13--14--|
D|--------------9--9--9--6--13--14--|
A|-----------------7--6--4--11--12--|
E|----------------------------------|

e|-----------------------------------|
B|--12--9-9h10-9-------------10-9-7--|
G|---------------11-9------9---------|
D|--------------------11-7-----------|
A|-----------------------------------|
E|-----------------------------------|

e|--12----9----------------------------|
B|--12--9---12-10-9-10-9---------------|
G|-----------------------11-8-9-9-9-9--|
D|-------------------------------------|
A|-------------------------------------|
E|-------------------------------------|

VERSE-I
e|--7---|-----------------|------7-------7------|
B|--7---|-----------------|--7-------7-----7----|
G|--9---|-----8-11-9-8-9--|----9---9---9-----9--|
D|--9---|--s9-------------|---------------------|
A|------|-----------------|---------------------|
E|------|-----------------|---------------------|

e|-----------------|------------------|
B|-----------------|--2---------------|
G|--------------11-|--2--2--4--8--11--|
D|--------------11-|--2--2------------|
A|--slide back--9--|--0--0--2--6--9---|
E|-----------------|--0--2------------|

CHORUS
e|---------------------------|
B|--9-10p9--9-10p9--9--10p9--|
G|--9-------9-------9--------|
D|--9-------9-------11-------|
A|--7-------6-------11-------|
E|------------------9--------|

e|-----------------------------------------|
B|-----------------------------------------|
G|--11--13--11--9--8--9--11--12--13--14----|
D|-----------------------------------------|
A|--9---11--9---7--6--7--9---10--11--12----|
E|-----------------------------------------|

e|----------------------------------|
B|-----b10--------------------------|
G|--b9-----b9-9----9--9--6--13--14--|
D|--------------9--9--9--6--13--14--|
A|-----------------7--6--4--11--12--|
E|----------------------------------|

e|-------------------7-7-11-11-12-12-14-14--|
B|---------7-7-10-10------------------------|
G|-----8-8----------------------------------|
D|-9-9--------------------------------------|
A|------------------------------------------|
E|------------------------------------------|

e|---------------------------|
B|--9-10p9--9-10p9--9--10p9--|
G|--9-------9-------9--------|
D|--9-------9-------11-------|
A|--7-------6-------11-------|
E|------------------9--------|

e|-----------------------------------------|
B|-----------------------------------------|
G|--11--13--11--9--8--9--11--12--13--14----|
D|-----------------------------------------|
A|--9---11--9---7--6--7--9---10--11--12----|
E|-----------------------------------------|

e|----------------------------------|
B|-----b10--------------------------|
G|--b9-----b9-9----9--9--6--13--14--|
D|--------------9--9--9--6--13--14--|
A|-----------------7--6--4--11--12--|
E|----------------------------------|

e|---------------------------------------|
B|-------------------------10--12--------|
G|--9--8--11--9--8---9--8--9---11--9--8--|
D|--9--9--9---9--9---9--9--7---9---9--9--|
A|--7--7--7---7--7---7--7----------7--7--|
E|---------------------------------------|

VERSE-II
e|--7---|----9-----------11-----|
B|--7---|------10-----12--------|
G|--9---|--9------s11-------11--|
D|--9---|-----------------------|
A|------|-----------------------|
E|------|-----------------------|

e|--12--11----------------------------------------11--|
B|----------12--9--12--9-----------------10----12-----|
G|------------------------9------------9----11--------|
D|---------------------------11--9--11----------------|
A|----------------------------------------------------|
E|----------------------------------------------------|

e|-----------------|------------------|
B|-----------------|--2---------------|
G|--------------11-|--2--2--4--8--16--|
D|--------------11-|--2--2------------|
A|--slide back--9--|--0--0--2--6--14--|
E|-----------------|--0--2------------|

Back to CHORUS

Cut to
BRIDGE
e|----------------------------------------------|
B|----------------------------------------------|
G|--9--8--9--8--9--13--11-13-11--9-8-9-13-11-9--|
D|----------------------------------------------|
A|--7--6--7--6--7--11--9--11-9---7-6-7-11-9--7--|
E|----------------------------------------------|

e|------------------------------12------9--------------|
B|-----12-----12-----9--10--14------12-----10--13--12--|
G|--9------8------7------------------------------------|
D|-----------------------------------------------------|
A|-----------------------------------------------------|
E|-----------------------------------------------------|

Back to CHORUS

ENDING
e|------------7--|
B|--14---16---7--|
G|--14---16---9--|
D|--14---16---9--|
A|--12---14---7--|
E|---------------|

as requested~

AKB48 REQUEST HOUR 2011 @ SHIBUYA-AX TOP 1 song! \o/

5 Responses to “tab: heavy rotation (ヘビーローテーション)”


  1. 2 martabakgemuk 12.28.2011 at 09:17 AM

    how can i read those symbols o,O???..can anyone teach me, how to read all of those symbols???

  2. 3 yuyun 02.28.2012 at 06:09 AM

    wow cool men…
    TQ
    tq
    tq…..

    from indonesian fans AKB48

  3. 4 Http://Www.duxburymoodle.com 01.19.2013 at 09:39 AM

    Thank you a lot for sharing this with all folks you actually understand what you’re speaking approximately! Bookmarked. Please additionally discuss with my web site =). We could have a hyperlink alternate arrangement between us


  1. 1 Kalpa Pharmaceuticals Injectable Steroids Trackback on 09.17.2014 at 13:02 PM

Leave a Reply

Fill in your details below or click an icon to log in:

WordPress.com Logo

You are commenting using your WordPress.com account. Log Out / Change )

Twitter picture

You are commenting using your Twitter account. Log Out / Change )

Facebook photo

You are commenting using your Facebook account. Log Out / Change )

Google+ photo

You are commenting using your Google+ account. Log Out / Change )

Connecting to %s





%d bloggers like this: