tab: metro

Metro

Artist: LEO今井
Album: FIX NEON

*CAPO 2*

INTRO
e|--0--|-----------------------|
B|--3--|-----------------------|
G|--2--|--6--7--9--11--12--14--|
D|--0--|-----------------------|
A|--2--|--4--5--7--9---10--12--|
E|-----|-----------------------|

Verse 1
e|--0-------0--|-------10----|--------3-2----|--------17-17-17-----|
B|--3-------0--|----10----10-|------3-----3--|-----17----------17--|
G|--2-------4--|--9----------|--0-2----------|--14-----------------|
D|--0---0---4--|-------------|---------------|---------------------|
A|--2---0-h-0--|-------------|---------------|---------------------|
E|------0---3--|-------------|---------------|---------------------|

e|--12--10--7----------7--5-----------------10--|
B|--12--10--7----5--7--------7--5-----8-7---10--|
G|------------------------------------------7---|
D|---------------------------------7--------7---|
A|----------------------------------------------|
E|----------------------------------------------|

Chorus
e|--------5---------------------------------------------10----10----10------|
B|------5--------5-----5-----5---------10---10---10--10----10----10-----10--|
G|--6-7--------7---7-----7-----7-----9----9----9----------------------------|
D|-----------7-------7-----7-----7------------------------------------------|
A|--------------------------------------------------------------------------|
E|--------------------------------------------------------------------------|
e|----------5-----------------------------------------------|
B|------5-7---8-7-------5-----5-----5---------10---10---10--|
G|--6-7---------------7---7-----7-----7-----9----9----9-----|
D|------------------7-------7-----7-----7-------------------|
A|----------------------------------------------------------|
E|----------------------------------------------------------|

e|------12----12----12------12--|
B|--12----12----12-----12-------|
G|------------------------------|
D|------------------------------|
A|------------------------------|
E|------------------------------|

e|------------------|---------------|
B|--7--10--7--------|--7--10--7-----|
G|------------9--7--|------------9--|
D|------------------|---------------|
A|------------------|---------------|
E|------------------|---------------|

Verse 2
e|--0-------0--|--12--|--0-2-3-2------|--10--|
B|--3-------0--|--12--|----------3----|--10--|
G|--2-------4--|--12--|------------2--|--9---|
D|--0---0---4--|------|---------------|------|
A|--2---0-h-0--|------|---------------|------|
E|------0---3--|------|---------------|------|

e|--12--10--7----------7--5----------------|
B|--12--10--7----5--7--------7--5-----8-7--|
G|-----------------------------------------|
D|---------------------------------7-------|
A|-----------------------------------------|
E|-----------------------------------------|

e|--------7--10--7---------7--7--7--7--|
B|--5--7------------10--7--------------|
G|-------------------------------------|
D|-------------------------------------|
A|-------------------------------------|
E|-------------------------------------|

Chorus 2
e|--------5------------------------------------------10----12----14----12--|
B|------5--------5-----5-----5---------10---10---10--10----12----14----12--|
G|--6-7--------7---7-----7-----7-----9----9----9---------------------------|
D|-----------7-------7-----7-----7-----------------------------------------|
A|-------------------------------------------------------------------------|
E|-------------------------------------------------------------------------|

e|----------5-----------------------------------------------|
B|------5-7---8-7-------5-----5-----5---------10---10---10--|
G|--6-7---------------7---7-----7-----7-----9----9----9-----|
D|------------------7-------7-----7-----7-------------------|
A|----------------------------------------------------------|
E|----------------------------------------------------------|

e|-----10----10----10----10----12----12----12----12--|
B|--10----10----10----10----12----12----12----12-----|
G|---------------------------------------------------|
D|---------------------------------------------------|
A|---------------------------------------------------|
E|---------------------------------------------------|

Solo
e|---------------------------------------|
B|--0-12-15-0-10-12-0-7-10-0-5-8-0-7-10--|
G|---------------------------------------| x2
D|---------------------------------------|
A|---------------------------------------|
E|---------------------------------------|

e|--------------------------------|
B|--0-12-15-0-10-12-0------10-12--|
G|--------------------9-11--------|
D|--------------------------------|
A|--------------------------------|
E|--------------------------------|

e|---------------------------------------|
B|--0-12-15-0-10-12-0-7-10-0-5-8-0-7-10--|
G|---------------------------------------| x2
D|---------------------------------------|
A|---------------------------------------|
E|---------------------------------------|

e|-------12------12------12------12--10--|
B|--0-10----0-10----0-10----0-10---------|
G|---------------------------------------|
D|---------------------------------------|
A|---------------------------------------|
E|---------------------------------------|

e|-----10----------------------------|
B|--12----12-10-12-10------------10--|
G|--------------------11-9-11-11-----|
D|-----------------------------------|
A|-----------------------------------|
E|-----------------------------------|

e|---------------------------------------------|
B|-------10-12------10-12-s15-12-10------------|
G|--9-11-------9-11------------------11-10-12--|
D|---------------------------------------------|
A|---------------------------------------------|
E|---------------------------------------------|

e|-------12------12------12------12--10--|
B|--0-10----0-10----0-10----0-10---------|
G|---------------------------------------|
D|---------------------------------------| x2
A|---------------------------------------|
E|---------------------------------------|

e|-------14------14------14------14--12--|
B|--0-12----0-12----0-12----0-12---------|
G|---------------------------------------|
D|---------------------------------------|
A|---------------------------------------|
E|---------------------------------------|

e|-------17------17------17------17--15--14--12--14~|
B|--0-15----0-15----0-15----0-15--------------------|
G|--------------------------------------------------|
D|--------------------------------------------------|
A|--------------------------------------------------|
E|--------------------------------------------------|

-pause- 
Chorus 3
e|----------------------------------------------------------10----12----14----12--|
B|--7-8-s10-8-7---------5-----5-----5---------10---10---10--10----12----14----12--|
G|--------------7-----7---7-----7-----7-----9----9----9---------------------------| x2
D|------------------7-------7-----7-----7-----------------------------------------|
A|--------------------------------------------------------------------------------|
E|--------------------------------------------------------------------------------|

Bridge/Ending
e|---5--7--12--10--5--7---2-3-2--------|
B|---5--7--12--10--5--7---------3---5--|
G|--------------------------------2----|
D|-------------------------------------|
A|-------------------------------------|
E|-------------------------------------|

e|---5--7--10--12--5--7---2-3-2--------|
B|---5--7--10--12--5--7---------3---5--|
G|--------------------------------2----|
D|-------------------------------------|
A|-------------------------------------|
E|-------------------------------------|

e|--10----12----14----12--|
B|--10----12----14----12--|
G|------------------------| x4
D|------------------------|
A|------------------------|
E|------------------------|

OUTRO
e|-----------------------|--0--|
B|-----------------------|--3--|
G|--6--7--9--11--12--14--|--2--|
D|-----------------------|--0--|
A|--4--5--7--9---10--12--|--2--|
E|-----------------------|-----|

END

1 Response to “tab: metro”


  1. 1 paris 06.04.2016 at 07:13 AM

    For newest news you have to pay a visit the web and on web I found this site
    as a finest site for newest updates.


Leave a Reply

Fill in your details below or click an icon to log in:

WordPress.com Logo

You are commenting using your WordPress.com account. Log Out / Change )

Twitter picture

You are commenting using your Twitter account. Log Out / Change )

Facebook photo

You are commenting using your Facebook account. Log Out / Change )

Google+ photo

You are commenting using your Google+ account. Log Out / Change )

Connecting to %s





%d bloggers like this: