tab: tokyo lights (kimonos)

Tokyo Lights

 
Artist: KIMONOS

GTR1
e|---0----0--|
B|---7----3--|
G|---7----4--|
D|---7----5--|
A|---0----5--|
E|-----------|

GTR2
e|--------------------------|--12---10---|
B|--12---10---7---10--8--7--|--12---10---|
G|--12---9----7---9---9--7--|--11---7----|
D|--------------------------|------------|
A|--------------------------|------------|
E|--------------------------|------------|
*dischord in some places

0 Responses to “tab: tokyo lights (kimonos)”



  1. Leave a Comment

Leave a Reply

Fill in your details below or click an icon to log in:

WordPress.com Logo

You are commenting using your WordPress.com account. Log Out / Change )

Twitter picture

You are commenting using your Twitter account. Log Out / Change )

Facebook photo

You are commenting using your Facebook account. Log Out / Change )

Google+ photo

You are commenting using your Google+ account. Log Out / Change )

Connecting to %s





%d bloggers like this: