tab: la brea ave.

 

La Brea Ave.

Artist: 前田敦子
Single: Flower

e|---------|
B|--2---4--|
G|--4---4--|
D|--4---4--|
A|---------|
E|---------|
Palm Mute

Verse
e|--------------------------------------------|
B|--------------------------------------------|
G|-----------8--9--8-----8--8-8--9--8--9--11--|
D|--9--8--6--8--9--8--6--8--8-8--9--8--9--11--|
A|--9--9--6--6--7--6--6--6--4-6--7--6--7--9---|
E|--7--6--4-----------4-----------------------|
Palm mute

1st Pre-Chorus
e|--4---2--|---------------------|--6--7--6--|
B|--4---2--|---------------------|--7--7--7--|
G|--4---3--|---------------------|--6--6--6--|
D|--6---4--|---------------------|-----------|
A|--6---4--|--2--4--5---4--2--4--|-----------|
E|--4---2--|--0--2--3---5--3--5--|-----------|

CHORUS
e|---------------------------------|
B|---------------------------------|
G|--11--9--8--6-----4--4--6--7--9--|
D|------------------4--4--4-----9--|
A|--9---7--6--4---2----2--4--5--7--|
E|---------------------------------|

e|-------------------------------------------|
B|----------------2--7---------7-------------|
G|--11--9--8--6---4--6--7--6---7-------------|
D|----------------4--4--7--4---7---11--7--7--|
A|--9---7--6--4---2--4--5--4--(5)------------|
E|---------------------------------9---5--9--|

2nd Verse
e|---------|
B|--2---4--|
G|--4---4--|
D|--4---4--|
A|---------|
E|---------|
Half-Mute

e|--4---2--|---------------------|------------------------|
B|--4---2--|---------------------|------------------------|
G|--4---3--|---------------------|-------------------8-9--|
D|--6---4--|---------------------|------------8-9-11------|
A|--6---4--|--2--4--5---4--2--4--|-------9-11-------------|
E|--4---2--|--0--2--3---5--3--5--|-slide------------------|

back to CHORUS

Bridge Solo
e|-----11-----------------------11----14--------------------|
B|--------12-s14-12-(x2)--12s14----12-------12-11----12-11--|
G|--11-----------------------------------11-------11--------|
D|----------------------------------------------------------|
A|----------------------------------------------------------|
E|----------------------------------------------------------|

e|---------------------------------------------------|
B|--12----12----14----12----11----11----12----14-----|
G|-----11----11----11----11----11----11----11----11--|
D|---------------------------------------------------|
A|---------------------------------------------------|
E|---------------------------------------------------|

e|--------------------------------------12--|
B|--s11-12--s11-12---8~--10~--12~--14~------|
G|------------------------------------------|
D|------------------------------------------|
A|------------------------------------------|
E|------------------------------------------|

*Bridge Rhythm (Power Chords)*
Bm - G#m - E - F#
Bm - B/Ab - G#m - F# - E - D#
E - G/F# - A - Bm

Back to CHORUS

Outro
e|------------------|
B|------------------|
G|------------------|
D|--2--4--5---5--9--|
A|--2--4--5---4--9--|
E|--0--2--3---5--7--|

END

1 Response to “tab: la brea ave.”


  1. 1 Shaun 09.07.2011 at 09:30 AM

    Um.. It could be my inexperience or something, but how do you read these tabs? I tried any of my logical methods and found nothing out of it.


Leave a Reply

Fill in your details below or click an icon to log in:

WordPress.com Logo

You are commenting using your WordPress.com account. Log Out / Change )

Twitter picture

You are commenting using your Twitter account. Log Out / Change )

Facebook photo

You are commenting using your Facebook account. Log Out / Change )

Google+ photo

You are commenting using your Google+ account. Log Out / Change )

Connecting to %s





%d bloggers like this: