tab: pareo wa emerald (パレオはエメラルド)


ゆっこ大好き〜!

 

パレオはエメラルド

Artist: SKE48
Entrance
e|--0---2---4---2---0---2---7--|
B|--2---4---5---4---2---4---9--|
G|--2---4---6---4---2---4---9--|
D|--2---4---6---4---2---4---9--|
A|--0---2---4---2---0---2---7--|
E|-----------------------------|
*arpeggio

Intro
e|--------------------------------------------------|
B|-----------------------------------9-10-----9-10--|
G|--9-9-8-9--9s11s9-8-9--9-9-8-9--s9-------s9-------|
D|--------------------------------------------------|
A|--------------------------------------------------|
E|--------------------------------------------------|

e|--7-b8-b8-7-7----7-----------------------7-7--|
B|--------------10---9---------------9-7-9------|
G|---------------------9-9p8s6---6-9------------|
D|-----------------------------7----------------|
A|----------------------------------------------|
E|----------------------------------------------|

e|----------------------------------------------------------------|
B|-----------------------------------9-10-----9-10----12-b13-b13--|
G|--9-9-8-9--9s11s9-8-9--9-9-8-9--s9-------s9---------------------|
D|----------------------------------------------------------------|
A|----------------------------------------------------------------|
E|----------------------------------------------------------------|

e|------------------------------------------------------------|
B|--12-12----12-----------------------------------------------|
G---------14----14-13-11-14-13-11----13-11-------11-----------|
D|--------------------------------14-------14-13----14-13-11--|
A|------------------------------------------------------------|
E|------------------------------------------------------------|

e|------------------------------|
B|-----------------------12-12--|
G|--------------13-11-13--------|
D|--11----11-14-----------------|
A|-----12-----------------------|
E|------------------------------|

Intro (Chords)
e|---------------------------|
B|---------------------------|
G|--9------------------------|
D|--9--9--11--9--7--6--4--9--|
A|--7--9--11--9--7--7--4--9--|
E|-----7--9---7--5--4--2--7--|
*Half mute-Attack

VERSE I
e|---------------------------|
B|---------------------------|
G|--9------------------------|
D|--9--9--11--9--7--6--4--9--|
A|--7--9--11--9--7--7--4--9--|
E|-----7--9---7--5--4--2--7--|

e|-------------------------------------|
B|------------------------------10--9--|
G|--9------------------------9--9---9--|
D|--9--9--11--9--7--6--4--9--9--9---9--|
A|--7--9--11--9--7--7--4--9--7--7---7--|
E|-----7--9---7--5--4--2--7------------|

VERSE II
e|--4--5--7--7---4--5--7--4--4--|
B|--5--5--7--9---5--5--7--4--4--|
G|--6--6--8--9---6--6--8--4--5--|
D|--6--7--9--9---6--7--9--6--6--|
A|--4--7--9--7---4--7--9--6--6--|
E|-----5--7---------5--7--4--4--|

CHORUS
e|------------------------------------|
B|------------------------------------|
G|--9--5--7--------7---9--5--7--------|
D|--9--5--7--5--4--7---9--5--7--5--4--|
A|--7--3--5--5--5--5---7--3--5--5--5--|
E|-----------3--2---------------3--2--|

e|--3---5---2---7----------------|
B|--5---7---3---8----------------|
G|--5---7---4---9----2--4--5--7--|
D|--5---7---4---9----2--4--5--7--|
A|--3---5---2---7----0--2--3--5--|
E|-------------------------------|

FILL
e|----------------------------------------------------------------|
B|-----------------------------------9-10-----9-10----12-b13-b13--|
G|--9-9-8-9--9s11s9-8-9--9-9-8-9--s9-------s9---------------------|
D|----------------------------------------------------------------|
A|----------------------------------------------------------------|
E|----------------------------------------------------------------|

e|------------------------------------------------------------|
B|--12-12----12-----------------------------------------------|
G---------14----14-13-11-14-13-11----13-11-------11-----------|
D|--------------------------------14-------14-13----14-13-11--|
A|------------------------------------------------------------|
E|------------------------------------------------------------|


Back to VERSE I

Back to VERSE II

Back to CHORUS


Bridge (solo)
e|--*(11)-12-14-16-17*------------b16-17-16-14-----|
B|----------------------s17-16-17--------------17--|
G|-------------------------------------------------|
D|-------------------------------------------------|
A|-------------------------------------------------|
E|-------------------------------------------------|
*tapping pattern*

e|-----------19----------b20-19--17-16-17p16-17p16s14----16-19-16-b19-----|
B|--17-16-17----17-16-17------------------------------17--------------17--|
G|------------------------------------------------------------------------|
D|------------------------------------------------------------------------|
A|------------------------------------------------------------------------|
E|------------------------------------------------------------------------|

Bridge (Power Chords)
e|--------------------------------|
B|--------------------------------|
G|--9----------------------9------|
D|--9--9--11--7--9---------9---9--|
A|--7--9--11--7--9--(x2)---7---9--|
E|-----7--9---5--7-------------7--|

Acoustic
e|--0---0---2---3---|
B|--0---1---3--(3)--|
G|--0---0---2---0---|
D|--2---2---0---0---|
A|--2---3---0---2---|
E|--0---0---0---3---|


Back to CHORUS


FILL
e|----------------------------------------------------------------|
B|-----------------------------------9-10-----9-10----12-b13-b13--|
G|--9-9-8-9--9s11s9-8-9--9-9-8-9--s9-------s9---------------------|
D|----------------------------------------------------------------|
A|----------------------------------------------------------------|
E|----------------------------------------------------------------|

e|------------------------------------------------------------|
B|--12-12----12-----------------------------------------------|
G---------14----14-13-11-14-13-11----13-11-------11-----------|
D|--------------------------------14-------14-13----14-13-11--|
A|------------------------------------------------------------|
E|------------------------------------------------------------|

Out
e|-------------|
B|-------------|
G|--9-------9--|
D|--9---9---9--|
A|--7---9---7--|
E|------7------|

END

SKE48選抜,おかえりゆっこ!!!!!!

1 Response to “tab: pareo wa emerald (パレオはエメラルド)”


  1. 1 4848484848 03.07.2013 at 05:46 AM

    thank you:)


Leave a Reply

Fill in your details below or click an icon to log in:

WordPress.com Logo

You are commenting using your WordPress.com account. Log Out / Change )

Twitter picture

You are commenting using your Twitter account. Log Out / Change )

Facebook photo

You are commenting using your Facebook account. Log Out / Change )

Google+ photo

You are commenting using your Google+ account. Log Out / Change )

Connecting to %s





%d bloggers like this: