tab: nichijou ni ikiru shoujo (日常に生きる少女)

日常に生きる少女

Artist: NUMBER GIRL
Album: SCHOOL GIRL DISTORTIONAL ADDICT

 

MUKAI (Guitar 1)

****CAPO 4*****

INTRO
e|----------------|
B|----------------|
G|----------------|
D|------9--11--9--|
A|--11--0--0---0--|
E|--0-------------|

Main Riff
e|--------------------------------------------|
B|----------------------------12--------------|
G|--------------------11b11--(12)--b11-11--9--|
D|-------------9--11--------------------------|
A|--11--9--11--0--0---------------------------|
E|--0---0--0----------------------------------|

Verse (Half Mute)
e|---------|---------|
B|---------|---------|
G|---------|---------|
D|---------|---------|
A|--6---7--|--9---9--|
E|--0---5--|--7---0--|

Main Riff (Chorus)
e|-------------------------------------|
B|-------------------------------------|
G|--------------------11b11-b11-11--9--|
D|-------------9--11-------------------|
A|--11--9--11--0--0--------------------|
E|--0---0--0---------------------------|

*noise with feeling*

Rest of It
e|-----|-------------------------------|-------|
B|-----|-------------------------------|-------|
G|-----|----8----8---------------------|-------|
D|-----|------11---11-9---11-11--------|-------|
A|--6--|-6----------------------12-11--|--6-7--|
E|--0--|-0-----------------------------|--0-5--|

e|-----------------|----------------------------------|
B|-----------------|----------------------------------|
G|-----8-9-8-------|--------9-8-----------------9-11--|
D|-----------11-9--|------------11-----0-0-9-11-------|
A|--6--------------|--6--7----------6-----------------|
E|--0--------------|--0--5----------0-----------------|

e|-----------------------------------|
B|-----------------------------------|
G|-----8-9-8----11-11-11-11b11-11-9--|
D|--11-------------------------------|
A|-----------2s----------------------|
E|-----------------------------------|

e|---------------------------------------------------|
B|---------------------------------------------------|
G|--------------------------------9-11-11b-11~11--9--|
D|----------9-11------------9-11---------------------|
A|--11-9-11-0-0----11--9-11-0-0----------------------|
E|--0--0-0---------0---0-0---------------------------|
*a few times

e|--------|----------------------|
B|--------|----------------------|
G|--------|----------------------|
D|--------|--noise with feeling--|
A|--9--9--|----------------------|
E|--7--0--|----------------------|

e|---------------------------------------------------|
B|---------------------------------------------------|
G|----------------9--9--8----------8--------------8--|
D|-------------------------11--11-----9--9--9--11----|
A|--6--14-----0--------------------------------------|
E|--0--0---0--0--------------------------------------|

e|-----------------------------------|
B|-----------------------------------|
G|--9-9-9--8------------8------------|
D|------------9--9--11-----11--9--9--|
A|-----------------------------------|
E|-----------------------------------|

e|----------------------------------------------|
B|--12-----------------------------8--9--8------|
G|------11--9--8--9--9--11--9--11-----------11--|
D|----------------------------------------------|
A|----------------------------------------------|
E|----------------------------------------------|

e|----------------------------|
B|----------------8h11--8-----|
G|-------------------------0--|
D|--11--11--11~---------------|
A|----------------------------|
E|----------------------------|

e|--------------------------------4-5-7--5-4--|
B|--8-8-8~--6-----------5-7-7-7-7-------------|
G|------------5-4-5-4-6-----------------------|
D|--------------------------------------------|
A|--------------------------------------------|
E|--------------------------------------------|

e|--4------------------------------------|
B|----5--0-------------------------------|
G|------------------------------------9--|
D|--------------------------9----9-------|
A|-------------------7-9-11---11---11----|
E|----------2--s7--9---------------------|

e|---------------------------------|
B|---------------------------------|
G|--9--11-11-11~--9------11--9--9--|
D|-------------------11------------|
A|---------------------------------|
E|---------------------------------|

e|--------------------------------------|
B|--------------------------------------|
G|--------------------------------------|
D|------11------11------11------11------|
A|--11--0---11--0---11--0---11--0---11--|
E|--0-------0-------0-------0-------0---|

HISAKO (Guitar 2)

****CAPO 4****

e|---------|--7--|------0--|
B|---------|--4--|------0--|
G|---------|--4--|--1---2--|
D|--2---7--|-----|--2---2--|
A|--2---4--|-----|--2---0--|
E|---------|-----|---------|

e|---------------------------4--5--|
B|--5---------------3-2------4--5--|
G|----4-2-1-1-----------2-2--------|
D|----------------2----------------|
A|---------------------------------|
E|---------------------------------|

e|---------------------------------|
B|--5---------------3-2------------|
G|----4-2-1-1-----------2-2--4--6--|
D|----------------2----------------|
A|---------------------------------|
E|---------------------------------|

e|------------------|-------------------|
B|--4-4-4---5-------|--4-4-4---5-5------|
G|--------4----4-6--|--------4----------|
D|------------------|----------------2--|
A|------------------|----------------2--|
E|------------------|----------------0--|

e|--------------------|
B|--4-4-4---5-5-------|
G|--------4-----------|
D|----------------4---|
A|----------------2---|
E|--------------------|

e|------0--------------------------|
B|------0-------------|
G|--1---2------------|
D|--2---2--------------------------|
A|--2---0--------------------------|
E|---------------------------------|

e|--------------------------------------------|
B|--------4-4-4-7-5--5---------4-4-4-----5-5--|
G|--4--6-----------------4--6---------4-------|
D|--------------------------------------------|
A|--------------------------------------------|
E|--------------------------------------------|

e|---------------7--------|
B|--------4-4-4-----5--5--|
G|--4--6------------------|
D|------------------------|
A|------------------------|
E|------------------------|

e|--------------------------------------------|
B|-----------------------------------------9--|
G|--8----8---8---8--8-9-8-6------8--9--8------|
D|--6----6---6---------------9---6--6--6---9--|
A|--------------------------------------------|
E|--------------------------------------------|

e|-------------------------------------------------|
B|------------------------------14-14-14-12-13-----|
G|--9s11-9-11s13----9---13--8-------------------8--|
D|----------------9-9-------6-------------------6--|
A|-------------------------------------------------|
E|-------------------------------------------------|

e|---------------------------------------------------------------------|
B|-------------9---7----------9---9---9---9--10---12----12-----14--12--|
G|--11--9--8----------9---13----9---9---9----9-------13----13--13--13--|
D|---------6---9---9--9------------------------------------------------|
A|---------------------------------------------------------------------|
E|---------------------------------------------------------------------|

e|------------14-14-14-12---------------------------------------12----------|
B|--10---12---------------13---14-14-14-12------12--12-14-12-14-----12--10--|
G|--9----13--------------------------------13---------------13--------------|
D|--------------------------------------------------------------------------|
A|--------------------------------------------------------------------------|
E|--------------------------------------------------------------------------|

e|--14-14-14-12-----------------------------------|
B|--------------14-12----------12----9------------|
G|---------------------10---------------11-11--9--|
D|--------------------------7------7--------------|
A|------------------------------------------------|
E|------------------------------------------------|

e|------------------------------------|
B|--9---9---9--10---9-9-11-9--11--13--|
G|----9---9----9----------------------|
D|------------------------------------|
A|------------------------------------|
E|------------------------------------|

e|-------------------------------------------------------------------|
B|--10---10----------12--14--12-14--12--12--12--10--9----------------|
G|--9--------13--13------------------------------------11--11--9--9--|
D|-------------------------------------------------------------------|
A|-------------------------------------------------------------------|
E|-------------------------------------------------------------------|

e|--12-14-14-14-14-12---------------------------|
B|--------------------14-12-------12-----12-----|
G|--------------------------13-13-----13----13--|
D|----------------------------------------------|
A|----------------------------------------------|
E|----------------------------------------------|

e|---------|-----------------------------|
B|---------|-----------------------------|
G|---------|-----------------------------|
D|--4---4--|-------------------------14--|
A|--2---2--|--16---14--12---11--12---0---|
E|---------|--0----0---0----0---0----0---|

e|--0----0--|
B|--0----0--|
G|--1----2--|
D|--2----2--|
A|--2----0--|
E|--0-------|

END

0 Responses to “tab: nichijou ni ikiru shoujo (日常に生きる少女)”



  1. Leave a Comment

Leave a Reply

Fill in your details below or click an icon to log in:

WordPress.com Logo

You are commenting using your WordPress.com account. Log Out / Change )

Twitter picture

You are commenting using your Twitter account. Log Out / Change )

Facebook photo

You are commenting using your Facebook account. Log Out / Change )

Google+ photo

You are commenting using your Google+ account. Log Out / Change )

Connecting to %s





%d bloggers like this: