tab: tokyo lights 2 (東京電燈其二)

Tokyo Lights 2 (東京電燈其二)

Artist: LEO今井
Album: FIX NEON

Main/Intro
e|----------8---------8-------|----------------|
B|-----8---------8------8-----|--1-~s13-15-10--|
G|--10---10---10---10-----10--|----------------|
D|----------------------------|----------------|
A|----------------------------|----------------|
E|----------------------------|----------------|

Verse
e|------------------|-------------|
B|------------------|--6---6---6--|
G|--10--10--10--10--|--5---5---5--|
D|--10--10--10--10--|--3----------|
A|--8---10----------|----------5--|
E|----------8---10--|------6------|
(Half-Mute)

Chorus
e|-----------------------------|--------------------------|
B|-----------------------------|--------------------------|
G|--3---5---7---2--3-----------|--3--5--7--2--3-----------|
D|--3---5---7---2--3-----------|--3--5--7--2--3--5--7--8--|
A|--1---3---5---0--1-------0)--|--1--3--5--0--1--5--8--8--|
E|--------------------(0h1-----|-----------------3--5--6--|

Chorus (Lead)
e|--15--17--12--13--------------------------|
B|------------------13--15------------------|
G|--------------------------10--12----------|
D|----------------------------------10--12--|
A|------------------------------------------|
E|------------------------------------------|

e|--15--17--12--13----------------------|
B|------------------13--15--------------|
G|--------------------------10--12------|
D|----------------------------------12--|
A|--------------------------------------|
E|--------------------------------------|

e|--15--17--13---15--17--19--20~--|
B|--------------------------------|
G|--------------------------------|
D|--------------------------------|
A|--------------------------------|
E|--------------------------------|

Repeat all

e|--10--12--13!--|
B|---------------|
G|---------------|
D|---------------|
A|---------------|
E|---------------|

Back to Chorus

Chorus Lead (alternate end)
e|--15--17------------|
B|----------b12--10~--|
G|--------------------|
D|--------------------|
A|--------------------|
E|--------------------|

Back to Main/Intro

END

0 Responses to “tab: tokyo lights 2 (東京電燈其二)”



  1. Leave a Comment

Leave a Reply

Fill in your details below or click an icon to log in:

WordPress.com Logo

You are commenting using your WordPress.com account. Log Out / Change )

Twitter picture

You are commenting using your Twitter account. Log Out / Change )

Facebook photo

You are commenting using your Facebook account. Log Out / Change )

Google+ photo

You are commenting using your Google+ account. Log Out / Change )

Connecting to %s





%d bloggers like this: