tab: tokyo lights (東京電燈 -Tokyo Lights-)

東京電燈 -Tokyo Lights-

Artist: LEO今井
Album: City Folk

Main
e|------------------------------|
B|--5-6-5-----------------------|
G|---------5----------5---------|
D|------------7--5-7----(5)--7--|
A|------------------------------|
E|------------------------------|

Verse
F - F - A# - F - F - A# - C - Dm - A# - C
e|----------------------------------------|
B|----------------------------------------|
G|--10---10-----10--10--------------------|
D|--10---10--8--10--10--8--10--12--8--10--|
A|--8----8---8--8---8---8--10--12--8--10--|
E|-----------6----------6--8---10--6--8---|
(Palm-mute)

Chorus
e|-----------------|
B|-----------------|
G|--10-------------|
D|--10----8---12---|
A|--8-----8---12---|
E|--------6---10---|

Chorus lead
e|--------------13--15--17-17b-17--13-----------|
B|----------13-------------------------13-(15)--|
G|--12--14--------------------------------------|
D|----------------------------------------------|
A|----------------------------------------------|
E|----------------------------------------------|

Bridge
e|---------------------------------|
B|---------------------------------|
G|--10--8--7-----------------------|
D|--10--8--7--8---5---8----10--10--|
A|--8---6--5--8---5---8----10--10--|
E|------------6---3---6----7---8---|

Ending
F - Dm

END

0 Responses to “tab: tokyo lights (東京電燈 -Tokyo Lights-)”



  1. Leave a Comment

Leave a Reply

Fill in your details below or click an icon to log in:

WordPress.com Logo

You are commenting using your WordPress.com account. Log Out / Change )

Twitter picture

You are commenting using your Twitter account. Log Out / Change )

Facebook photo

You are commenting using your Facebook account. Log Out / Change )

Google+ photo

You are commenting using your Google+ account. Log Out / Change )

Connecting to %s





%d bloggers like this: