tab: zetsumetsu kurokami shoujo (絶滅黒髪少女)

絶滅黒髪少女

Artist: NMB48
Single: 絶滅黒髪少女

Intro
e|--6--------------------------|
B|--6---------------1---3---4--|
G|--5---------0h1h2-----3---4--|
D|--3---0h1h2-----------3---4--|
A|-----------------------------|
E|-----------------------------|

Main (Ver1)
e|----------------------5--7------------|
B|----------------------6--9-10-9-10-9--|
G|-----8-7--5-----------5--7-9--9-9--9--|
D|--7--7-7--5----------------9--9-9--9--| (X2)
A|--7--6-5--3--0-3-0--------------------|
E|--5-----------------------------------|

Main (Alternate)
e|----------------------------------------------|
B|----------------------2--6---1-3-4-3h4p3---1--|
G|-----8-7--5-----------3--5---------------2----|
D|--7--7-7--5-----------0--0--------------------|
A|--7--6-5--3--0-3-0----------------------------|
E|--5-------------------------------------------|

e|----------------------5----------------------5--|
B|----------------------6--6-5-3--1-3-4-3h4p3--5--|
G|-----8-7--5-----------5--5-5-2---------------5--|
D|--7--7-7--5-------------------------------------|
A|--7--6-5--3--0-3-0------------------------------|
E|--5---------------------------------------------|

Verse I
e|--------------------------|
B|--------------------------|
G|-----5--7-----------------|
D|--7--5--7--3--2-----------|
A|--7--3--5-------3--5p3p0--|
E|--5--------1--------------|

e|-------------------------------|
B|-------------------------------|
G|-----4-6-4-6--7--9-10--9-10-9--|
D|--7----------------------------| (x2)
A|-----2-3-2-3--5--7-8---7-8--7--|
E|--5----------------------------|

e|-------------------------------|
B|-------------------------------|
G|-----4-6-4-6----------7--9-10--|
D|--7-----------3-5-7------------|
A|-----2-3-2-3----------5--7-8---|
E|--5-----------1-3-5------------|
CHORUS
e|--------------------------------------|
B|-------------------------------1------|
G|------12-10-9--7--5--4--5--2---2------|
D|--7---12-10-9--7--5--4--5--2---3---7--| (x2)
A|--7---10-8--7--5--3--2--3--0---3---7--|
E|--5--------------------------------5--|
e|------------------------------|
B|------------------------------|
G|------5---7---7---10----------|
D|--7---5---7---7---10--(3)--5--|
A|--7---3---5---5---8---(3)--5--|
E|--5-------------------(1)--3--|

FILL
e|------------------------------------|
B|------------------------------------|
G|-----5--7---------------------------|
D|--7--5--7--3--0-7p5p0-3p2-----------|
A|--7--3--5-----------------3--5p3p0--|
E|--5--------1------------------------|

Back to Verse

Back to Chorus

Bridge
e|---------------------------|
B|---------------------------|
G|--5--7--9-7-9--10--12--14--|
D|---------------------------|
A|--3--5--7-5-7--8---10--12--|
E|---------------------------|

Bridge Gtr Solo
e|-------------------------------11-10--------|
B|--b15-b15-15-12--------9-11-13-------12-13--|
G|-----------------10-12----------------------|
D|--------------------------------------------|
A|--------------------------------------------|
E|--------------------------------------------|

e|--s16-15-----------------------------------13-----|
B|---------15-16-13-15-12-13-9-11--------b14----13--|
G|--------------------------------10-12-------------|
D|--------------------------------------------------|
A|--------------------------------------------------|
E|--------------------------------------------------|

e|--15--16--15--13---------18-----------|
B|--16--16--16--13----s15------15--13~--|
G|--15--15--15--13----------------------|
D|--------------------------------------|
A|--------------------------------------|
E|--------------------------------------|

Bridge pt. III
e|--------|----------------------|
B|-----9--|----------------------|
G|--9--9--|----------------------|
D|--9--9--|-------------------7--|
A|--7-----|--3---5---7--5--7--8--|
E|--------|--5---7---8--8--8-----|

Back to Chorus

Back to Main

Outro
e|----------------------------|
B|--------------1---3---4--5--|
G|--------0h1h2-----3---4--5--|
D|--0h1h2-----------3---4--5--|
A|----------------------------|
E|----------------------------|
END

**self-made arrange.

1 Response to “tab: zetsumetsu kurokami shoujo (絶滅黒髪少女)”


  1. 1 KoTa 07.24.2011 at 11:44 AM

    great work u been doing!! these tabs Help me a lot for playin! Could you do 唇触れず Kuchibiru Furezu by ノースリーブス?


Leave a Reply

Fill in your details below or click an icon to log in:

WordPress.com Logo

You are commenting using your WordPress.com account. Log Out / Change )

Twitter picture

You are commenting using your Twitter account. Log Out / Change )

Facebook photo

You are commenting using your Facebook account. Log Out / Change )

Google+ photo

You are commenting using your Google+ account. Log Out / Change )

Connecting to %s





%d bloggers like this: