tab: sexual hell (性的地獄)



性的地獄
Artist: 透明雜誌 / Touming Magazine
Album: 我们的灵魂乐

Guitar 1 - *CAPO 1*

Am7 - Bm7 - Em

Am7 - Bm7 - Em - G

Am7 - Bm7 - Em - Cmaj7

e|--12---------------------|
B|--12---------------------|
G|--12--bend with feeling--|
D|--12---------------------|
A|-------------------------|
E|-------------------------|

e|---------------------------------------------|
B|-----------------------------------------15--|
G|--12--9---12--14--9---16--17--16-14-12---14--|
D|-----------------------------------------12--|
A|--10--7---10--12--7---14--15--14-12-10-------|
E|---------------------------------------------|

Guitar 2 - *CAPO 3*

Intro
e|-1-----3-----5--5---4-----5-----7--5--|
B|----------------5------------------6--|
G|---0-2---2-3----5-----3-5---5-5----7--|
D|-----------------------------------0--|
A|--------------------------------------|
E|--------------------------------------|

Main Riff
e|----------5--|
B|----------6--|
G|--3---5---7--|
D|--3---5---0--|
A|--x---x------|
E|--3---5------|


e|-------10------8---------------------------|
B|--8h10----10-8---8-6------6--6--8--6--b10--|
G|----------------------5s7----7--7--7---10--|
D|-------------------------------------------|
A|-------------------------------------------|
E|-------------------------------------------|

e|-13--12--10--------------------10--|
B|-13--13--10---6----------------10--|
G|--------------5-~slide+bend~---10--|
D|-----------------------------------|
A|-----------------------------------|
E|-----------------------------------|

Verse Riffs
e|----------5--10--|
B|----------6--10--|
G|--3---5---7--10--|
D|--3---5---0--10--|
A|--x---x----------|
E|--3---5----------|

e|-------------|
B|-------------|
G|--3---5---7--|
D|--3---5---7--|
A|--x---x---x--|
E|--3---5---6--|

e|-------10--------------|-------8------------|
B|--8h10----10-8h10s6----|--8h10---10-8h10s6--|
G|--------------------5--|--------------------|
D|-----------------------|--------------------|
A|-----------------------|--------------------|
E|-----------------------|--------------------|

Bridge
e|--10p8-10------------|
B|--10p8-10---10p9-10--|
G|------------10p9-10--|
D|---------------------|
A|---------------------|
E|---------------------|

Solo
e|--10---13---------------8------8--------13--10--|
B|------------10--10-8-10---10-----10--13---------|
G|------------------------------------------------|
D|------------------------------------------------|
A|------------------------------------------------|
E|------------------------------------------------|

e|-10----13--10--13-----13-10-15---------------------------------------|
B|----13------------10--------------------------------8s10-8p6---------|
G|----------------------------------------------7--10----------7-10-7--|
D|---------------------------------------7--10-------------------------|
A|---------------------------------8--10-------------------------------|
E|---------------------------------------------------------------------|

e|----------5--|
B|----------6--|
G|--3---5---7--|
D|--3---5---0--|
A|--x---x------|
E|--3---5------|

e|-------------|
B|-------------|
G|--3---5---7--|
D|--3---5---7--|
A|--x---x---x--|
E|--3---5---6--|
END

0 Responses to “tab: sexual hell (性的地獄)”



  1. Leave a Comment

Leave a Reply

Fill in your details below or click an icon to log in:

WordPress.com Logo

You are commenting using your WordPress.com account. Log Out / Change )

Twitter picture

You are commenting using your Twitter account. Log Out / Change )

Facebook photo

You are commenting using your Facebook account. Log Out / Change )

Google+ photo

You are commenting using your Google+ account. Log Out / Change )

Connecting to %s





%d bloggers like this: