tab: mini grammer


NUMBER GIRL
♫ MINI GRAMMER
Album: School Girl Bye Bye

Mukai - *CAPO 7*
Main/Verse
e|--2---2----|--2---2----|
B|--0---0----|--0---0----|
G|--0---0----|--0---0----|
D|--0---0----|--0---0----|
A|--0---0----|--2---0h2--|
E|--2---0h2--|--0---0----|

Chorus
e|--2----3--|
B|--3----3--|
G|--2----0--|
D|--0----0--|
A|--0----2--|
E|--2----3--|

HISAKO
Verse
e|-----------------------9--7--9--7--|
B|-----------------------------------|
G|--------------x---x----------------|
D|--16----11----x---x----------------|
A|--14----11----x---x----------------|
E|--14----9--------------------------|

e|-----------------------14-12--------|
B|-----------------------------14-12--|
G|--------------x---x-----------------|
D|--16----11----x---x-----------------|
A|--14----11----x---x-----------------|
E|--14----9---------------------------|

Chorus/Etc
e|------------|--9----10---|------------|
B|------(10)--|--9----10---|------------|
G|--9----11---|--9----11---|------------|
D|--11---12---|--11---12---|------------|
A|--12---12---|--12---12---|--9--9---9--|
E|------------|--9----10---|--9--7h9-7--|

Solo
e|-------------------------------------------------|
B|-------------------------------------------------|
G|---------------------------------2-4-2--4-5b-5b--|
D|-----------4--2--------------2-4-----------------|
A|-----4--2---------4-4-2-0------------------------|
E|--2-----------------------0----------------------|

e|---------------------------------------------------|
B|-------------------17-17-14---------13--13h14--14--|
G|-6-6s9-9s11-11s14-----------16-14---14--14-----14--|
D|---------------------------------------------------|
A|---------------------------------------------------|
E|---------------------------------------------------|

e|--------12-14-16-17-17---------------------|
B|--12-14----------------17------------------|
G|--------------------------14---------------|
D|-----------------------------16-14---------|
A|-----------------------------------17-16b--|
E|-------------------------------------------|

e|----------------------------------|
B|----------------------------------|
G|----------------------------------|
D|----------------------------------|
A|--7-5-----------------------------|
E|------7-5-0-2s5-2s7-2s9-2s12s12~--|

End

0 Responses to “tab: mini grammer”



  1. Leave a Comment

Leave a Reply

Fill in your details below or click an icon to log in:

WordPress.com Logo

You are commenting using your WordPress.com account. Log Out / Change )

Twitter picture

You are commenting using your Twitter account. Log Out / Change )

Facebook photo

You are commenting using your Facebook account. Log Out / Change )

Google+ photo

You are commenting using your Google+ account. Log Out / Change )

Connecting to %s





%d bloggers like this: