Archive Page 2

tab: pareo wa emerald (パレオはエメラルド)


ゆっこ大好き〜!

 

パレオはエメラルド

Artist: SKE48
Entrance
e|--0---2---4---2---0---2---7--|
B|--2---4---5---4---2---4---9--|
G|--2---4---6---4---2---4---9--|
D|--2---4---6---4---2---4---9--|
A|--0---2---4---2---0---2---7--|
E|-----------------------------|
*arpeggio

Intro
e|--------------------------------------------------|
B|-----------------------------------9-10-----9-10--|
G|--9-9-8-9--9s11s9-8-9--9-9-8-9--s9-------s9-------|
D|--------------------------------------------------|
A|--------------------------------------------------|
E|--------------------------------------------------|

e|--7-b8-b8-7-7----7-----------------------7-7--|
B|--------------10---9---------------9-7-9------|
G|---------------------9-9p8s6---6-9------------|
D|-----------------------------7----------------|
A|----------------------------------------------|
E|----------------------------------------------|

e|----------------------------------------------------------------|
B|-----------------------------------9-10-----9-10----12-b13-b13--|
G|--9-9-8-9--9s11s9-8-9--9-9-8-9--s9-------s9---------------------|
D|----------------------------------------------------------------|
A|----------------------------------------------------------------|
E|----------------------------------------------------------------|

e|------------------------------------------------------------|
B|--12-12----12-----------------------------------------------|
G---------14----14-13-11-14-13-11----13-11-------11-----------|
D|--------------------------------14-------14-13----14-13-11--|
A|------------------------------------------------------------|
E|------------------------------------------------------------|

e|------------------------------|
B|-----------------------12-12--|
G|--------------13-11-13--------|
D|--11----11-14-----------------|
A|-----12-----------------------|
E|------------------------------|

Intro (Chords)
e|---------------------------|
B|---------------------------|
G|--9------------------------|
D|--9--9--11--9--7--6--4--9--|
A|--7--9--11--9--7--7--4--9--|
E|-----7--9---7--5--4--2--7--|
*Half mute-Attack

VERSE I
e|---------------------------|
B|---------------------------|
G|--9------------------------|
D|--9--9--11--9--7--6--4--9--|
A|--7--9--11--9--7--7--4--9--|
E|-----7--9---7--5--4--2--7--|

e|-------------------------------------|
B|------------------------------10--9--|
G|--9------------------------9--9---9--|
D|--9--9--11--9--7--6--4--9--9--9---9--|
A|--7--9--11--9--7--7--4--9--7--7---7--|
E|-----7--9---7--5--4--2--7------------|

VERSE II
e|--4--5--7--7---4--5--7--4--4--|
B|--5--5--7--9---5--5--7--4--4--|
G|--6--6--8--9---6--6--8--4--5--|
D|--6--7--9--9---6--7--9--6--6--|
A|--4--7--9--7---4--7--9--6--6--|
E|-----5--7---------5--7--4--4--|

CHORUS
e|------------------------------------|
B|------------------------------------|
G|--9--5--7--------7---9--5--7--------|
D|--9--5--7--5--4--7---9--5--7--5--4--|
A|--7--3--5--5--5--5---7--3--5--5--5--|
E|-----------3--2---------------3--2--|

e|--3---5---2---7----------------|
B|--5---7---3---8----------------|
G|--5---7---4---9----2--4--5--7--|
D|--5---7---4---9----2--4--5--7--|
A|--3---5---2---7----0--2--3--5--|
E|-------------------------------|

FILL
e|----------------------------------------------------------------|
B|-----------------------------------9-10-----9-10----12-b13-b13--|
G|--9-9-8-9--9s11s9-8-9--9-9-8-9--s9-------s9---------------------|
D|----------------------------------------------------------------|
A|----------------------------------------------------------------|
E|----------------------------------------------------------------|

e|------------------------------------------------------------|
B|--12-12----12-----------------------------------------------|
G---------14----14-13-11-14-13-11----13-11-------11-----------|
D|--------------------------------14-------14-13----14-13-11--|
A|------------------------------------------------------------|
E|------------------------------------------------------------|


Back to VERSE I

Back to VERSE II

Back to CHORUS


Bridge (solo)
e|--*(11)-12-14-16-17*------------b16-17-16-14-----|
B|----------------------s17-16-17--------------17--|
G|-------------------------------------------------|
D|-------------------------------------------------|
A|-------------------------------------------------|
E|-------------------------------------------------|
*tapping pattern*

e|-----------19----------b20-19--17-16-17p16-17p16s14----16-19-16-b19-----|
B|--17-16-17----17-16-17------------------------------17--------------17--|
G|------------------------------------------------------------------------|
D|------------------------------------------------------------------------|
A|------------------------------------------------------------------------|
E|------------------------------------------------------------------------|

Bridge (Power Chords)
e|--------------------------------|
B|--------------------------------|
G|--9----------------------9------|
D|--9--9--11--7--9---------9---9--|
A|--7--9--11--7--9--(x2)---7---9--|
E|-----7--9---5--7-------------7--|

Acoustic
e|--0---0---2---3---|
B|--0---1---3--(3)--|
G|--0---0---2---0---|
D|--2---2---0---0---|
A|--2---3---0---2---|
E|--0---0---0---3---|


Back to CHORUS


FILL
e|----------------------------------------------------------------|
B|-----------------------------------9-10-----9-10----12-b13-b13--|
G|--9-9-8-9--9s11s9-8-9--9-9-8-9--s9-------s9---------------------|
D|----------------------------------------------------------------|
A|----------------------------------------------------------------|
E|----------------------------------------------------------------|

e|------------------------------------------------------------|
B|--12-12----12-----------------------------------------------|
G---------14----14-13-11-14-13-11----13-11-------11-----------|
D|--------------------------------14-------14-13----14-13-11--|
A|------------------------------------------------------------|
E|------------------------------------------------------------|

Out
e|-------------|
B|-------------|
G|--9-------9--|
D|--9---9---9--|
A|--7---9---7--|
E|------7------|

END

SKE48選抜,おかえりゆっこ!!!!!!

Advertisements

tab: la brea ave.

 

La Brea Ave.

Artist: 前田敦子
Single: Flower

e|---------|
B|--2---4--|
G|--4---4--|
D|--4---4--|
A|---------|
E|---------|
Palm Mute

Verse
e|--------------------------------------------|
B|--------------------------------------------|
G|-----------8--9--8-----8--8-8--9--8--9--11--|
D|--9--8--6--8--9--8--6--8--8-8--9--8--9--11--|
A|--9--9--6--6--7--6--6--6--4-6--7--6--7--9---|
E|--7--6--4-----------4-----------------------|
Palm mute

1st Pre-Chorus
e|--4---2--|---------------------|--6--7--6--|
B|--4---2--|---------------------|--7--7--7--|
G|--4---3--|---------------------|--6--6--6--|
D|--6---4--|---------------------|-----------|
A|--6---4--|--2--4--5---4--2--4--|-----------|
E|--4---2--|--0--2--3---5--3--5--|-----------|

CHORUS
e|---------------------------------|
B|---------------------------------|
G|--11--9--8--6-----4--4--6--7--9--|
D|------------------4--4--4-----9--|
A|--9---7--6--4---2----2--4--5--7--|
E|---------------------------------|

e|-------------------------------------------|
B|----------------2--7---------7-------------|
G|--11--9--8--6---4--6--7--6---7-------------|
D|----------------4--4--7--4---7---11--7--7--|
A|--9---7--6--4---2--4--5--4--(5)------------|
E|---------------------------------9---5--9--|

2nd Verse
e|---------|
B|--2---4--|
G|--4---4--|
D|--4---4--|
A|---------|
E|---------|
Half-Mute

e|--4---2--|---------------------|------------------------|
B|--4---2--|---------------------|------------------------|
G|--4---3--|---------------------|-------------------8-9--|
D|--6---4--|---------------------|------------8-9-11------|
A|--6---4--|--2--4--5---4--2--4--|-------9-11-------------|
E|--4---2--|--0--2--3---5--3--5--|-slide------------------|

back to CHORUS

Bridge Solo
e|-----11-----------------------11----14--------------------|
B|--------12-s14-12-(x2)--12s14----12-------12-11----12-11--|
G|--11-----------------------------------11-------11--------|
D|----------------------------------------------------------|
A|----------------------------------------------------------|
E|----------------------------------------------------------|

e|---------------------------------------------------|
B|--12----12----14----12----11----11----12----14-----|
G|-----11----11----11----11----11----11----11----11--|
D|---------------------------------------------------|
A|---------------------------------------------------|
E|---------------------------------------------------|

e|--------------------------------------12--|
B|--s11-12--s11-12---8~--10~--12~--14~------|
G|------------------------------------------|
D|------------------------------------------|
A|------------------------------------------|
E|------------------------------------------|

*Bridge Rhythm (Power Chords)*
Bm - G#m - E - F#
Bm - B/Ab - G#m - F# - E - D#
E - G/F# - A - Bm

Back to CHORUS

Outro
e|------------------|
B|------------------|
G|------------------|
D|--2--4--5---5--9--|
A|--2--4--5---4--9--|
E|--0--2--3---5--7--|

END

tab: metro

Metro

Artist: LEO今井
Album: FIX NEON

*CAPO 2*

INTRO
e|--0--|-----------------------|
B|--3--|-----------------------|
G|--2--|--6--7--9--11--12--14--|
D|--0--|-----------------------|
A|--2--|--4--5--7--9---10--12--|
E|-----|-----------------------|

Verse 1
e|--0-------0--|-------10----|--------3-2----|--------17-17-17-----|
B|--3-------0--|----10----10-|------3-----3--|-----17----------17--|
G|--2-------4--|--9----------|--0-2----------|--14-----------------|
D|--0---0---4--|-------------|---------------|---------------------|
A|--2---0-h-0--|-------------|---------------|---------------------|
E|------0---3--|-------------|---------------|---------------------|

e|--12--10--7----------7--5-----------------10--|
B|--12--10--7----5--7--------7--5-----8-7---10--|
G|------------------------------------------7---|
D|---------------------------------7--------7---|
A|----------------------------------------------|
E|----------------------------------------------|

Chorus
e|--------5---------------------------------------------10----10----10------|
B|------5--------5-----5-----5---------10---10---10--10----10----10-----10--|
G|--6-7--------7---7-----7-----7-----9----9----9----------------------------|
D|-----------7-------7-----7-----7------------------------------------------|
A|--------------------------------------------------------------------------|
E|--------------------------------------------------------------------------|
e|----------5-----------------------------------------------|
B|------5-7---8-7-------5-----5-----5---------10---10---10--|
G|--6-7---------------7---7-----7-----7-----9----9----9-----|
D|------------------7-------7-----7-----7-------------------|
A|----------------------------------------------------------|
E|----------------------------------------------------------|

e|------12----12----12------12--|
B|--12----12----12-----12-------|
G|------------------------------|
D|------------------------------|
A|------------------------------|
E|------------------------------|

e|------------------|---------------|
B|--7--10--7--------|--7--10--7-----|
G|------------9--7--|------------9--|
D|------------------|---------------|
A|------------------|---------------|
E|------------------|---------------|

Verse 2
e|--0-------0--|--12--|--0-2-3-2------|--10--|
B|--3-------0--|--12--|----------3----|--10--|
G|--2-------4--|--12--|------------2--|--9---|
D|--0---0---4--|------|---------------|------|
A|--2---0-h-0--|------|---------------|------|
E|------0---3--|------|---------------|------|

e|--12--10--7----------7--5----------------|
B|--12--10--7----5--7--------7--5-----8-7--|
G|-----------------------------------------|
D|---------------------------------7-------|
A|-----------------------------------------|
E|-----------------------------------------|

e|--------7--10--7---------7--7--7--7--|
B|--5--7------------10--7--------------|
G|-------------------------------------|
D|-------------------------------------|
A|-------------------------------------|
E|-------------------------------------|

Chorus 2
e|--------5------------------------------------------10----12----14----12--|
B|------5--------5-----5-----5---------10---10---10--10----12----14----12--|
G|--6-7--------7---7-----7-----7-----9----9----9---------------------------|
D|-----------7-------7-----7-----7-----------------------------------------|
A|-------------------------------------------------------------------------|
E|-------------------------------------------------------------------------|

e|----------5-----------------------------------------------|
B|------5-7---8-7-------5-----5-----5---------10---10---10--|
G|--6-7---------------7---7-----7-----7-----9----9----9-----|
D|------------------7-------7-----7-----7-------------------|
A|----------------------------------------------------------|
E|----------------------------------------------------------|

e|-----10----10----10----10----12----12----12----12--|
B|--10----10----10----10----12----12----12----12-----|
G|---------------------------------------------------|
D|---------------------------------------------------|
A|---------------------------------------------------|
E|---------------------------------------------------|

Solo
e|---------------------------------------|
B|--0-12-15-0-10-12-0-7-10-0-5-8-0-7-10--|
G|---------------------------------------| x2
D|---------------------------------------|
A|---------------------------------------|
E|---------------------------------------|

e|--------------------------------|
B|--0-12-15-0-10-12-0------10-12--|
G|--------------------9-11--------|
D|--------------------------------|
A|--------------------------------|
E|--------------------------------|

e|---------------------------------------|
B|--0-12-15-0-10-12-0-7-10-0-5-8-0-7-10--|
G|---------------------------------------| x2
D|---------------------------------------|
A|---------------------------------------|
E|---------------------------------------|

e|-------12------12------12------12--10--|
B|--0-10----0-10----0-10----0-10---------|
G|---------------------------------------|
D|---------------------------------------|
A|---------------------------------------|
E|---------------------------------------|

e|-----10----------------------------|
B|--12----12-10-12-10------------10--|
G|--------------------11-9-11-11-----|
D|-----------------------------------|
A|-----------------------------------|
E|-----------------------------------|

e|---------------------------------------------|
B|-------10-12------10-12-s15-12-10------------|
G|--9-11-------9-11------------------11-10-12--|
D|---------------------------------------------|
A|---------------------------------------------|
E|---------------------------------------------|

e|-------12------12------12------12--10--|
B|--0-10----0-10----0-10----0-10---------|
G|---------------------------------------|
D|---------------------------------------| x2
A|---------------------------------------|
E|---------------------------------------|

e|-------14------14------14------14--12--|
B|--0-12----0-12----0-12----0-12---------|
G|---------------------------------------|
D|---------------------------------------|
A|---------------------------------------|
E|---------------------------------------|

e|-------17------17------17------17--15--14--12--14~|
B|--0-15----0-15----0-15----0-15--------------------|
G|--------------------------------------------------|
D|--------------------------------------------------|
A|--------------------------------------------------|
E|--------------------------------------------------|

-pause- 
Chorus 3
e|----------------------------------------------------------10----12----14----12--|
B|--7-8-s10-8-7---------5-----5-----5---------10---10---10--10----12----14----12--|
G|--------------7-----7---7-----7-----7-----9----9----9---------------------------| x2
D|------------------7-------7-----7-----7-----------------------------------------|
A|--------------------------------------------------------------------------------|
E|--------------------------------------------------------------------------------|

Bridge/Ending
e|---5--7--12--10--5--7---2-3-2--------|
B|---5--7--12--10--5--7---------3---5--|
G|--------------------------------2----|
D|-------------------------------------|
A|-------------------------------------|
E|-------------------------------------|

e|---5--7--10--12--5--7---2-3-2--------|
B|---5--7--10--12--5--7---------3---5--|
G|--------------------------------2----|
D|-------------------------------------|
A|-------------------------------------|
E|-------------------------------------|

e|--10----12----14----12--|
B|--10----12----14----12--|
G|------------------------| x4
D|------------------------|
A|------------------------|
E|------------------------|

OUTRO
e|-----------------------|--0--|
B|-----------------------|--3--|
G|--6--7--9--11--12--14--|--2--|
D|-----------------------|--0--|
A|--4--5--7--9---10--12--|--2--|
E|-----------------------|-----|

END

tab: tokyo lights (kimonos)

Tokyo Lights

 
Artist: KIMONOS

GTR1
e|---0----0--|
B|---7----3--|
G|---7----4--|
D|---7----5--|
A|---0----5--|
E|-----------|

GTR2
e|--------------------------|--12---10---|
B|--12---10---7---10--8--7--|--12---10---|
G|--12---9----7---9---9--7--|--11---7----|
D|--------------------------|------------|
A|--------------------------|------------|
E|--------------------------|------------|
*dischord in some places

tab: heavy rotation (ヘビーローテーション)

AKB48 – ヘビーローテーション

Single – ヘビーローテーション

GUITAR 1 Rhythm

INTRO
e|---------------------------------|
B|-------------------------10--12--|
G|--9--8--11--9--8---9--8--9---11--|
D|--9--9--9---9--9---9--9--7---9---|
A|--7--7--7---7--7---7--7----------|
E|---------------------------------|

e|--------------------------|
B|--------------------------|
G|--9-----6--1--------------|
D|--9--6--6--2--4-5-6-7--9--|
A|--7--6--4--2--4-5-6-7--9--|
E|-----4--------2-3-4-5--7--|

e|--------------------|----------------------|
B|--------------2-----|----------------------|
G|--9--9--6--4--2--4--|--9--6-------------9--|
D|--9--9--6--4--2--4--|--9--6--7--9-(x2)--9--|
A|--7--8--4--2--0--2--|--7--4--7--9-------7--|
E|--------------------|--------5--7----------|

VERSE
e|--------------------------|
B|--------------2-----------|
G|--9-----6--4--2--4--------|
D|--9--6--6--4--2--4--(x2)--|
A|--7--6--4--2-----2--------|
E|-----4--------------------|

e|-----------------------------|
B|--------------------2--------|
G|--------9--9--6--4--2-----4--|
D|--7--9--9--9--6--4--2--4--4--|
A|--7--9--7--8--4--2-----4--2--|
E|--5--7-----------------2-----|

CHORUS
e|-----------------------|
B|-----------------------|
G|--9-----6--1-----------|
D|--9--6--6--2--4-5-6-7--|
A|--7--6--4--2--4-5-6-7--|
E|-----4--------2-3-4-5--|

e|-----------------------------|
B|--------------------2--------|
G|--------9--9--6--4--2-----4--|
D|--7--9--9--9--6--4--2--4--4--|
A|--7--9--7--8--4--2-----4--2--|
E|--5--7-----------------2-----|

e|-----------------------|
B|-----------------------|
G|--9-----6--1-----------|
D|--9--6--6--2--4-5-6-7--|
A|--7--6--4--2--4-5-6-7--|
E|-----4--------2-3-4-5--|

e|--------------------------|
B|--------------------2-----|
G|--------9--9--6--4--2--4--|
D|--7--9--9--9--6--4--2--4--|
A|--7--9--7--8--4--2-----2--|
E|--5--7--------------------|

e|---------------------------------|
B|-------------------------10--12--|
G|--9--8--11--9--8---9--8--9---11--|
D|--9--9--9---9--9---9--9--7---9---|
A|--7--7--7---7--7---7--7----------|
E|---------------------------------|

Back to VERSE

Back to CHORUS

Cut to
BRIDGE
e|------------------------------------|
B|------------------------------------|
G|--9--6---------9--9--6-----------9--|
D|--9--6--7--9---9--9--6--9--7--9--9--|
A|--7--4--7--9---7--8--4--9--7--9--7--|
E|--------5--7------------7--5--7-----|

e|----------------------------------7--------|
B|------------10p9--------------------9------|
G|----9---9--------9-------8---8--------8----|
D|--9---9---9--------9---6---6----6-------6--|
A|-------------------------------------------|
E|-------------------------------------------|

e|---------------------13-------------------|
B|---------12-------12----------------------|
G|------11-----s10--------------------------|
D|--------------------------11--13--14--11--|
A|--s9----------------------9---11--12--9---|
E|------------------------------------------|

e|-------------------------------------------|
B|-------------------------------------------|
G|---------9--9--8--6------------11--14--16--|
D|--7--10--9--9--8--6--7--10--9--------------|
A|--7--10--7--7--6--4--7--10--9--9---12--14--|
E|--5--8---------------5--8---7--------------|

Back to CHORUS

END

GUITAR 2 Lead

INTRO (Guitar 1)
e|---------------------------------|
B|-------------------------10--12--|
G|--9--8--11--9--8---9--8--9---11--|
D|--9--9--9---9--9---9--9--7---9---|
A|--7--7--7---7--7---7--7----------|
E|---------------------------------|

e|---------------------------|
B|--9-10p9--9-10p9--9--10p9--|
G|--9-------9-------9--------|
D|--9-------9-------11-------|
A|--7-------6-------11-------|
E|------------------9--------|

e|-----------------------------------------|
B|-----------------------------------------|
G|--11--13--11--9--8--9--11--12--13--14----|
D|-----------------------------------------|
A|--9---11--9---7--6--7--9---10--11--12----|
E|-----------------------------------------|

e|----------------------------------|
B|-----b10--------------------------|
G|--b9-----b9-9----9--9--6--13--14--|
D|--------------9--9--9--6--13--14--|
A|-----------------7--6--4--11--12--|
E|----------------------------------|

e|-----------------------------------|
B|--12--9-9h10-9-------------10-9-7--|
G|---------------11-9------9---------|
D|--------------------11-7-----------|
A|-----------------------------------|
E|-----------------------------------|

e|--12----9----------------------------|
B|--12--9---12-10-9-10-9---------------|
G|-----------------------11-8-9-9-9-9--|
D|-------------------------------------|
A|-------------------------------------|
E|-------------------------------------|

VERSE-I
e|--7---|-----------------|------7-------7------|
B|--7---|-----------------|--7-------7-----7----|
G|--9---|-----8-11-9-8-9--|----9---9---9-----9--|
D|--9---|--s9-------------|---------------------|
A|------|-----------------|---------------------|
E|------|-----------------|---------------------|

e|-----------------|------------------|
B|-----------------|--2---------------|
G|--------------11-|--2--2--4--8--11--|
D|--------------11-|--2--2------------|
A|--slide back--9--|--0--0--2--6--9---|
E|-----------------|--0--2------------|

CHORUS
e|---------------------------|
B|--9-10p9--9-10p9--9--10p9--|
G|--9-------9-------9--------|
D|--9-------9-------11-------|
A|--7-------6-------11-------|
E|------------------9--------|

e|-----------------------------------------|
B|-----------------------------------------|
G|--11--13--11--9--8--9--11--12--13--14----|
D|-----------------------------------------|
A|--9---11--9---7--6--7--9---10--11--12----|
E|-----------------------------------------|

e|----------------------------------|
B|-----b10--------------------------|
G|--b9-----b9-9----9--9--6--13--14--|
D|--------------9--9--9--6--13--14--|
A|-----------------7--6--4--11--12--|
E|----------------------------------|

e|-------------------7-7-11-11-12-12-14-14--|
B|---------7-7-10-10------------------------|
G|-----8-8----------------------------------|
D|-9-9--------------------------------------|
A|------------------------------------------|
E|------------------------------------------|

e|---------------------------|
B|--9-10p9--9-10p9--9--10p9--|
G|--9-------9-------9--------|
D|--9-------9-------11-------|
A|--7-------6-------11-------|
E|------------------9--------|

e|-----------------------------------------|
B|-----------------------------------------|
G|--11--13--11--9--8--9--11--12--13--14----|
D|-----------------------------------------|
A|--9---11--9---7--6--7--9---10--11--12----|
E|-----------------------------------------|

e|----------------------------------|
B|-----b10--------------------------|
G|--b9-----b9-9----9--9--6--13--14--|
D|--------------9--9--9--6--13--14--|
A|-----------------7--6--4--11--12--|
E|----------------------------------|

e|---------------------------------------|
B|-------------------------10--12--------|
G|--9--8--11--9--8---9--8--9---11--9--8--|
D|--9--9--9---9--9---9--9--7---9---9--9--|
A|--7--7--7---7--7---7--7----------7--7--|
E|---------------------------------------|

VERSE-II
e|--7---|----9-----------11-----|
B|--7---|------10-----12--------|
G|--9---|--9------s11-------11--|
D|--9---|-----------------------|
A|------|-----------------------|
E|------|-----------------------|

e|--12--11----------------------------------------11--|
B|----------12--9--12--9-----------------10----12-----|
G|------------------------9------------9----11--------|
D|---------------------------11--9--11----------------|
A|----------------------------------------------------|
E|----------------------------------------------------|

e|-----------------|------------------|
B|-----------------|--2---------------|
G|--------------11-|--2--2--4--8--16--|
D|--------------11-|--2--2------------|
A|--slide back--9--|--0--0--2--6--14--|
E|-----------------|--0--2------------|

Back to CHORUS

Cut to
BRIDGE
e|----------------------------------------------|
B|----------------------------------------------|
G|--9--8--9--8--9--13--11-13-11--9-8-9-13-11-9--|
D|----------------------------------------------|
A|--7--6--7--6--7--11--9--11-9---7-6-7-11-9--7--|
E|----------------------------------------------|

e|------------------------------12------9--------------|
B|-----12-----12-----9--10--14------12-----10--13--12--|
G|--9------8------7------------------------------------|
D|-----------------------------------------------------|
A|-----------------------------------------------------|
E|-----------------------------------------------------|

Back to CHORUS

ENDING
e|------------7--|
B|--14---16---7--|
G|--14---16---9--|
D|--14---16---9--|
A|--12---14---7--|
E|---------------|

as requested~

AKB48 REQUEST HOUR 2011 @ SHIBUYA-AX TOP 1 song! \o/

tab: pajama drive (パジャマドライブ)

AKB48 – パジャマドライブ
Album: チームB 3rd Stage「パジャマドライブ」

INTRO/MAIN
A – Dm – Bb
e|---------------------------------------------------|
B|---------------------------------------------------|
G|---------------------------------------------------|
D|--7-------7--5--10--12--7--5--7--5--------5--------|
A|--5----5----------------------------5--8-----8--5--|
E|--5------------------------------------------------|

C – Bb – A
e|------------------------------------------------------------|
B|---------------------------------8s10--8------8-------------|
G|------------------------------------------10-----10--9------|
D|-----8s10--8--10--12--10--8--7--------------------------10--|
A|--7---------------------------------------------------------|
E|------------------------------------------------------------|

Dm – Bb
e|----------------------------------------------|
B|----------------------------------------------|
G|----------------------------------------------|
D|-----7--5--10--12--7--5--7--5--------5--------|
A|--5----------------------------5--8-----8--5--|
E|----------------------------------------------|

C – Bb – A
e|------------------------------------|
B|------------------------------------|
G|------------------------------------|
D|-----8s10--8--10--12--10--8--7---7--|
A|--7------------------------------7--|
E|---------------------------------5--|

VERSE-I (1)
e|-------------------------------|
B|--3---3---3---3-------------3--|
G|--2---2---2---2-------2-----2--|
D|--------------------0----0--0--|
A|--0---3---0---3---0---------0--|
E|-------------------------------|

VERSE-II
e|--------------------|
B|--------------------|
G|--------------------|
D|--9----6----9----6--|
A|--9----7----9----7--|
E|--7----4----7----4--|

VERSE-III
e|--------------------------------------|
B|--------------------------------------|
G|--12--11--9--11--9----11--9--7--9--7--|
D|--------------------------------------|
A|--10--9---7--9---7----9---7--5--7--5--|
E|--------------------------------------|

e|-------------------------------------|
B|-------------------------------------|
G|--10----11--12--14--11--12--14---14--|
D|-------------------------------------|
A|--8-----9---10--12--9---10--12---12--|
E|-------------------------------------|

CHORUS
e|--------------------------------------------|
B|----------------------10-11-10----10--------|
G|--7------------10--------------12----12-10--|
D|--7---8---10---10---------------------------|
A|--5---8---10---8----------------------------|
E|------6---8---------------------------------|

e|---------------------------------------------|
B|---------------------------------------------|
G|--7------------------------------------------|
D|--7---8---10---8----7-8-7-8-7-8-7-8-7-5-3-2--|
A|--5---8---10---8-----------------------------|
E|------6---8----6----5-6-5-6-5-6-5-6-5-3-1-0--|

BACK TO INTRO

VERSE-I (2)
e|----------------------------|
B|--3---3--------3--3---3--3--|
G|--2---2------2----2---2--2--|
D|---------0---------------0--|
A|--0---3----3------0---3--0--|
E|----------------------------|

BACK TO VERSE-II

BACK TO VERSE-III

BACK TO CHORUS

BRIDGE
e|----------------5--------------|
B|----------6--8-----8--6--5-----|
G|--7---5---------------------7--|
D|--7---5------------------------|
A|--5---3------------------------|
E|-------------------------------|

e|-----------------------------|
B|--3----3---------3-----3--3--|
G|--2------2---------2---2--0--|
D|-----0-------0---------0--0--|
A|---------------3-------0--0--|
E|-----------------------------|

e|---------------------------------------------------------------|
B|---------------------------------------------------------------|
G|---------10--7----15---------------12-13-14-15-14-15-14-15-13--|
D|--8--10--10--7------------12-14-15-----------------------------|
A|--8--10--8---5----13---15----------------12-13-12-13-12-13-12--|
E|--6--8---------------------------------------------------------|

CAR HORN
e|--5--|
B|--5--|
G|-----|
D|-----|
A|-----|
E|-----|

BACK TO CHORUS

BACK TO MAIN

MAIN-II
e|---------------------------------------------------|
B|-----10--8--13--15--10--8--10--8---------8---------|
G|--7-------------------------------7--10-----10--7--|
D|---------------------------------------------------|
A|---------------------------------------------------|
E|---------------------------------------------------|

e|-----------------------------------|
B|-----11s13-11--13--15--13--11--10--|
G|--9--------------------------------|
D|-----------------------------------|
A|-----------------------------------|
E|-----------------------------------|

e|--------------------------------------|-----|
B|--------------------------------------|-----|
G|--14-15-14-15-14-15-14-15-14-12-10-9--|--7--|
D|--------------------------------------|--7--|
A|--12-13-12-13-12-13-12-13-12-10-8--7--|--5--|
E|--------------------------------------|-----|

END
e|-----|
B|-----|
G|--5--|
D|--5--|
A|--5--|
E|--5--|

tab: toumei shoujo (透明少女)

NUMBER GIRL – 透明少女
Album: SCHOOL GIRL DISTORTIONAL ADDICT

HISAKO

INTRO
e|------|
B|--12--|
G|--11--|
D|--9---|
A|------|
E|------|

VERSE
e|-------------------------|
B|-------------------------|
G|-------------------------|
D|--9--11--9---16--18--16--|
A|--9--9---9---14--14--14--|
E|-------------------------|

VERSE 2
e|----------------|
B|----------------|
G|----------------|
D|--8----11----9--|
A|--9----13----9--|
E|----------------|

CHORUS
e|-------------------------|
B|-------------------------|
G|-------------------------|
D|------8---9-----------4--|
A|--6---6---7---9---4---2--|
E|--4-----------7---2------|

e|---------------------------------|
B|---------------------------------|
G|---------------------------------|
D|------8---9-------8--------------|
A|--6---6---7---9---6---8---7---9--|
E|--4-----------7-------6---5---7--|

BREAK
e|------|
B|--12--|
G|--11--|
D|--9---|
A|------|
E|------|

e|-------------------------|
B|-------------------------|
G|-------------------------|
D|--9--11--9---9--9--9--4--|
A|--9--9---9---6--7--6--6--|
E|-------------------------|

e|-------------------------|
B|-------------------------|
G|-------------------------|
D|--9--11--9---9--9--9--4--|
A|--9--9---9---6--7--6--6--|
E|-------------------------|

e|-----------------------|
B|-----------------------|
G|-----------------------|
D|------16---9--9--9--4--|
A|--14--14---6--7--6--6--|
E|-----------------------|

e|-------------------------|
B|-------------------------|
G|-------------------------|
D|--9--11--9---16--18--16--|
A|--9--9---9---14--14--14--|
E|-------------------------|

Back to VERSE 2

Back to CHORUS

END
e|-----|
B|-----|
G|-----|
D|-----|
A|--7--|
E|--5--|


MUKAI

CAPO 2nd FRET

Intro
e|--0--|
B|--0--|
G|--6--|
D|--6--|
A|-----|
E|--5--|

VERSE
e|--0----0--|
B|--0----0--|
G|--6----6--|
D|--6-------|
A|-------5--|
E|--5-------|

VERSE 2
e|--0---0---0--|
B|--0---0---0--|
G|--4---4---6--|
D|------4---6--|
A|--4----------|
E|------4---5--|

CHORUS
e|--0---0---0---0---0---0--|
B|--0---0---0---0---0---0--|
G|--2---4---6---6---1---2--|
D|--2-----------6---2---2--|
A|------4---5-------2---0--|
E|--2-----------5----------|

e|--0---0---0---0---0---0---0---0--|
B|--0---0---0---0---0---0---0---0--|
G|--2---4---6---6---4---4---4---2--|
D|--2-----------6-------4---4---2--|
A|------4---5-------4-----------0--|
E|--2-----------5-------4---3------|

BREAK
e|--0---0-----0-----0--|
B|--0---0-----0-----0--|
G|--2---2---0h2---2s4--|
D|--2---2--------------|
A|--0------------------|
E|------2--------------|

(Arpeggio)

e|-----------------|
B|-----------------|
G|--2-------4---6--|
D|--2---4---4---6--|
A|--0---4---2---4--|
E|------2----------|

Back to VERSE 2

Back to CHORUS

END
e|--0--|
B|--0--|
G|--5--|
D|--5--|
A|-----|
E|--3--|