Posts Tagged 'ナンバーガール'

tab: brutal man


BRUTAL MAN
NUMBER GIRL
Album: SAPPUKEI

CAPO 2

mukai
e|--0--|---0---0---|------------------|--0---|
B|--0--|---0---0---|------------------|--0---|
G|--4--|---4---4---|------------------|--1---|
D|--4--|---4---0---|--2---5--6-----2--|--2---|
A|--0--|---0---3---|--2---3--4--5--2--|--2---|
E|--3--|---3-------|--0---------3--0--|------|

hisako
e|--0---0--|--14---------|--------------------|
B|--0---5--|---------14--|--5--------------3--|
G|--4---4--|------11-----|------3p2-----------|
D|--4---0--|-------------|-----------5--2-----|
A|--0---3--|-------------|--------------------|
E|--3------|-------------|--------------------|

e|---------|------------------|--------------|
B|---------|------------------|--------------|
G|------5--|------------------|--------------|
D|--5---5--|--2---5--6-----2--|-----5--2--5--|
A|--5---3--|--2---3--4--5--2--|--5--3--2--3--|
E|--3------|------------3-----|--3-----------|

*very similar to BRUTAL NUMBER GIRL*

tab: mini grammer


NUMBER GIRL
♫ MINI GRAMMER
Album: School Girl Bye Bye

Mukai - *CAPO 7*
Main/Verse
e|--2---2----|--2---2----|
B|--0---0----|--0---0----|
G|--0---0----|--0---0----|
D|--0---0----|--0---0----|
A|--0---0----|--2---0h2--|
E|--2---0h2--|--0---0----|

Chorus
e|--2----3--|
B|--3----3--|
G|--2----0--|
D|--0----0--|
A|--0----2--|
E|--2----3--|

HISAKO
Verse
e|-----------------------9--7--9--7--|
B|-----------------------------------|
G|--------------x---x----------------|
D|--16----11----x---x----------------|
A|--14----11----x---x----------------|
E|--14----9--------------------------|

e|-----------------------14-12--------|
B|-----------------------------14-12--|
G|--------------x---x-----------------|
D|--16----11----x---x-----------------|
A|--14----11----x---x-----------------|
E|--14----9---------------------------|

Chorus/Etc
e|------------|--9----10---|------------|
B|------(10)--|--9----10---|------------|
G|--9----11---|--9----11---|------------|
D|--11---12---|--11---12---|------------|
A|--12---12---|--12---12---|--9--9---9--|
E|------------|--9----10---|--9--7h9-7--|

Solo
e|-------------------------------------------------|
B|-------------------------------------------------|
G|---------------------------------2-4-2--4-5b-5b--|
D|-----------4--2--------------2-4-----------------|
A|-----4--2---------4-4-2-0------------------------|
E|--2-----------------------0----------------------|

e|---------------------------------------------------|
B|-------------------17-17-14---------13--13h14--14--|
G|-6-6s9-9s11-11s14-----------16-14---14--14-----14--|
D|---------------------------------------------------|
A|---------------------------------------------------|
E|---------------------------------------------------|

e|--------12-14-16-17-17---------------------|
B|--12-14----------------17------------------|
G|--------------------------14---------------|
D|-----------------------------16-14---------|
A|-----------------------------------17-16b--|
E|-------------------------------------------|

e|----------------------------------|
B|----------------------------------|
G|----------------------------------|
D|----------------------------------|
A|--7-5-----------------------------|
E|------7-5-0-2s5-2s7-2s9-2s12s12~--|

End

tab: nichijou ni ikiru shoujo (日常に生きる少女)

日常に生きる少女

Artist: NUMBER GIRL
Album: SCHOOL GIRL DISTORTIONAL ADDICT

 

MUKAI (Guitar 1)

****CAPO 4*****

INTRO
e|----------------|
B|----------------|
G|----------------|
D|------9--11--9--|
A|--11--0--0---0--|
E|--0-------------|

Main Riff
e|--------------------------------------------|
B|----------------------------12--------------|
G|--------------------11b11--(12)--b11-11--9--|
D|-------------9--11--------------------------|
A|--11--9--11--0--0---------------------------|
E|--0---0--0----------------------------------|

Verse (Half Mute)
e|---------|---------|
B|---------|---------|
G|---------|---------|
D|---------|---------|
A|--6---7--|--9---9--|
E|--0---5--|--7---0--|

Main Riff (Chorus)
e|-------------------------------------|
B|-------------------------------------|
G|--------------------11b11-b11-11--9--|
D|-------------9--11-------------------|
A|--11--9--11--0--0--------------------|
E|--0---0--0---------------------------|

*noise with feeling*

Rest of It
e|-----|-------------------------------|-------|
B|-----|-------------------------------|-------|
G|-----|----8----8---------------------|-------|
D|-----|------11---11-9---11-11--------|-------|
A|--6--|-6----------------------12-11--|--6-7--|
E|--0--|-0-----------------------------|--0-5--|

e|-----------------|----------------------------------|
B|-----------------|----------------------------------|
G|-----8-9-8-------|--------9-8-----------------9-11--|
D|-----------11-9--|------------11-----0-0-9-11-------|
A|--6--------------|--6--7----------6-----------------|
E|--0--------------|--0--5----------0-----------------|

e|-----------------------------------|
B|-----------------------------------|
G|-----8-9-8----11-11-11-11b11-11-9--|
D|--11-------------------------------|
A|-----------2s----------------------|
E|-----------------------------------|

e|---------------------------------------------------|
B|---------------------------------------------------|
G|--------------------------------9-11-11b-11~11--9--|
D|----------9-11------------9-11---------------------|
A|--11-9-11-0-0----11--9-11-0-0----------------------|
E|--0--0-0---------0---0-0---------------------------|
*a few times

e|--------|----------------------|
B|--------|----------------------|
G|--------|----------------------|
D|--------|--noise with feeling--|
A|--9--9--|----------------------|
E|--7--0--|----------------------|

e|---------------------------------------------------|
B|---------------------------------------------------|
G|----------------9--9--8----------8--------------8--|
D|-------------------------11--11-----9--9--9--11----|
A|--6--14-----0--------------------------------------|
E|--0--0---0--0--------------------------------------|

e|-----------------------------------|
B|-----------------------------------|
G|--9-9-9--8------------8------------|
D|------------9--9--11-----11--9--9--|
A|-----------------------------------|
E|-----------------------------------|

e|----------------------------------------------|
B|--12-----------------------------8--9--8------|
G|------11--9--8--9--9--11--9--11-----------11--|
D|----------------------------------------------|
A|----------------------------------------------|
E|----------------------------------------------|

e|----------------------------|
B|----------------8h11--8-----|
G|-------------------------0--|
D|--11--11--11~---------------|
A|----------------------------|
E|----------------------------|

e|--------------------------------4-5-7--5-4--|
B|--8-8-8~--6-----------5-7-7-7-7-------------|
G|------------5-4-5-4-6-----------------------|
D|--------------------------------------------|
A|--------------------------------------------|
E|--------------------------------------------|

e|--4------------------------------------|
B|----5--0-------------------------------|
G|------------------------------------9--|
D|--------------------------9----9-------|
A|-------------------7-9-11---11---11----|
E|----------2--s7--9---------------------|

e|---------------------------------|
B|---------------------------------|
G|--9--11-11-11~--9------11--9--9--|
D|-------------------11------------|
A|---------------------------------|
E|---------------------------------|

e|--------------------------------------|
B|--------------------------------------|
G|--------------------------------------|
D|------11------11------11------11------|
A|--11--0---11--0---11--0---11--0---11--|
E|--0-------0-------0-------0-------0---|

HISAKO (Guitar 2)

****CAPO 4****

e|---------|--7--|------0--|
B|---------|--4--|------0--|
G|---------|--4--|--1---2--|
D|--2---7--|-----|--2---2--|
A|--2---4--|-----|--2---0--|
E|---------|-----|---------|

e|---------------------------4--5--|
B|--5---------------3-2------4--5--|
G|----4-2-1-1-----------2-2--------|
D|----------------2----------------|
A|---------------------------------|
E|---------------------------------|

e|---------------------------------|
B|--5---------------3-2------------|
G|----4-2-1-1-----------2-2--4--6--|
D|----------------2----------------|
A|---------------------------------|
E|---------------------------------|

e|------------------|-------------------|
B|--4-4-4---5-------|--4-4-4---5-5------|
G|--------4----4-6--|--------4----------|
D|------------------|----------------2--|
A|------------------|----------------2--|
E|------------------|----------------0--|

e|--------------------|
B|--4-4-4---5-5-------|
G|--------4-----------|
D|----------------4---|
A|----------------2---|
E|--------------------|

e|------0--------------------------|
B|------0-------------|
G|--1---2------------|
D|--2---2--------------------------|
A|--2---0--------------------------|
E|---------------------------------|

e|--------------------------------------------|
B|--------4-4-4-7-5--5---------4-4-4-----5-5--|
G|--4--6-----------------4--6---------4-------|
D|--------------------------------------------|
A|--------------------------------------------|
E|--------------------------------------------|

e|---------------7--------|
B|--------4-4-4-----5--5--|
G|--4--6------------------|
D|------------------------|
A|------------------------|
E|------------------------|

e|--------------------------------------------|
B|-----------------------------------------9--|
G|--8----8---8---8--8-9-8-6------8--9--8------|
D|--6----6---6---------------9---6--6--6---9--|
A|--------------------------------------------|
E|--------------------------------------------|

e|-------------------------------------------------|
B|------------------------------14-14-14-12-13-----|
G|--9s11-9-11s13----9---13--8-------------------8--|
D|----------------9-9-------6-------------------6--|
A|-------------------------------------------------|
E|-------------------------------------------------|

e|---------------------------------------------------------------------|
B|-------------9---7----------9---9---9---9--10---12----12-----14--12--|
G|--11--9--8----------9---13----9---9---9----9-------13----13--13--13--|
D|---------6---9---9--9------------------------------------------------|
A|---------------------------------------------------------------------|
E|---------------------------------------------------------------------|

e|------------14-14-14-12---------------------------------------12----------|
B|--10---12---------------13---14-14-14-12------12--12-14-12-14-----12--10--|
G|--9----13--------------------------------13---------------13--------------|
D|--------------------------------------------------------------------------|
A|--------------------------------------------------------------------------|
E|--------------------------------------------------------------------------|

e|--14-14-14-12-----------------------------------|
B|--------------14-12----------12----9------------|
G|---------------------10---------------11-11--9--|
D|--------------------------7------7--------------|
A|------------------------------------------------|
E|------------------------------------------------|

e|------------------------------------|
B|--9---9---9--10---9-9-11-9--11--13--|
G|----9---9----9----------------------|
D|------------------------------------|
A|------------------------------------|
E|------------------------------------|

e|-------------------------------------------------------------------|
B|--10---10----------12--14--12-14--12--12--12--10--9----------------|
G|--9--------13--13------------------------------------11--11--9--9--|
D|-------------------------------------------------------------------|
A|-------------------------------------------------------------------|
E|-------------------------------------------------------------------|

e|--12-14-14-14-14-12---------------------------|
B|--------------------14-12-------12-----12-----|
G|--------------------------13-13-----13----13--|
D|----------------------------------------------|
A|----------------------------------------------|
E|----------------------------------------------|

e|---------|-----------------------------|
B|---------|-----------------------------|
G|---------|-----------------------------|
D|--4---4--|-------------------------14--|
A|--2---2--|--16---14--12---11--12---0---|
E|---------|--0----0---0----0---0----0---|

e|--0----0--|
B|--0----0--|
G|--1----2--|
D|--2----2--|
A|--2----0--|
E|--0-------|

END

tab: toumei shoujo (透明少女)

NUMBER GIRL – 透明少女
Album: SCHOOL GIRL DISTORTIONAL ADDICT

HISAKO

INTRO
e|------|
B|--12--|
G|--11--|
D|--9---|
A|------|
E|------|

VERSE
e|-------------------------|
B|-------------------------|
G|-------------------------|
D|--9--11--9---16--18--16--|
A|--9--9---9---14--14--14--|
E|-------------------------|

VERSE 2
e|----------------|
B|----------------|
G|----------------|
D|--8----11----9--|
A|--9----13----9--|
E|----------------|

CHORUS
e|-------------------------|
B|-------------------------|
G|-------------------------|
D|------8---9-----------4--|
A|--6---6---7---9---4---2--|
E|--4-----------7---2------|

e|---------------------------------|
B|---------------------------------|
G|---------------------------------|
D|------8---9-------8--------------|
A|--6---6---7---9---6---8---7---9--|
E|--4-----------7-------6---5---7--|

BREAK
e|------|
B|--12--|
G|--11--|
D|--9---|
A|------|
E|------|

e|-------------------------|
B|-------------------------|
G|-------------------------|
D|--9--11--9---9--9--9--4--|
A|--9--9---9---6--7--6--6--|
E|-------------------------|

e|-------------------------|
B|-------------------------|
G|-------------------------|
D|--9--11--9---9--9--9--4--|
A|--9--9---9---6--7--6--6--|
E|-------------------------|

e|-----------------------|
B|-----------------------|
G|-----------------------|
D|------16---9--9--9--4--|
A|--14--14---6--7--6--6--|
E|-----------------------|

e|-------------------------|
B|-------------------------|
G|-------------------------|
D|--9--11--9---16--18--16--|
A|--9--9---9---14--14--14--|
E|-------------------------|

Back to VERSE 2

Back to CHORUS

END
e|-----|
B|-----|
G|-----|
D|-----|
A|--7--|
E|--5--|


MUKAI

CAPO 2nd FRET

Intro
e|--0--|
B|--0--|
G|--6--|
D|--6--|
A|-----|
E|--5--|

VERSE
e|--0----0--|
B|--0----0--|
G|--6----6--|
D|--6-------|
A|-------5--|
E|--5-------|

VERSE 2
e|--0---0---0--|
B|--0---0---0--|
G|--4---4---6--|
D|------4---6--|
A|--4----------|
E|------4---5--|

CHORUS
e|--0---0---0---0---0---0--|
B|--0---0---0---0---0---0--|
G|--2---4---6---6---1---2--|
D|--2-----------6---2---2--|
A|------4---5-------2---0--|
E|--2-----------5----------|

e|--0---0---0---0---0---0---0---0--|
B|--0---0---0---0---0---0---0---0--|
G|--2---4---6---6---4---4---4---2--|
D|--2-----------6-------4---4---2--|
A|------4---5-------4-----------0--|
E|--2-----------5-------4---3------|

BREAK
e|--0---0-----0-----0--|
B|--0---0-----0-----0--|
G|--2---2---0h2---2s4--|
D|--2---2--------------|
A|--0------------------|
E|------2--------------|

(Arpeggio)

e|-----------------|
B|-----------------|
G|--2-------4---6--|
D|--2---4---4---6--|
A|--0---4---2---4--|
E|------2----------|

Back to VERSE 2

Back to CHORUS

END
e|--0--|
B|--0--|
G|--5--|
D|--5--|
A|-----|
E|--3--|