Posts Tagged '向井秀徳'

tab: mini grammer


NUMBER GIRL
♫ MINI GRAMMER
Album: School Girl Bye Bye

Mukai - *CAPO 7*
Main/Verse
e|--2---2----|--2---2----|
B|--0---0----|--0---0----|
G|--0---0----|--0---0----|
D|--0---0----|--0---0----|
A|--0---0----|--2---0h2--|
E|--2---0h2--|--0---0----|

Chorus
e|--2----3--|
B|--3----3--|
G|--2----0--|
D|--0----0--|
A|--0----2--|
E|--2----3--|

HISAKO
Verse
e|-----------------------9--7--9--7--|
B|-----------------------------------|
G|--------------x---x----------------|
D|--16----11----x---x----------------|
A|--14----11----x---x----------------|
E|--14----9--------------------------|

e|-----------------------14-12--------|
B|-----------------------------14-12--|
G|--------------x---x-----------------|
D|--16----11----x---x-----------------|
A|--14----11----x---x-----------------|
E|--14----9---------------------------|

Chorus/Etc
e|------------|--9----10---|------------|
B|------(10)--|--9----10---|------------|
G|--9----11---|--9----11---|------------|
D|--11---12---|--11---12---|------------|
A|--12---12---|--12---12---|--9--9---9--|
E|------------|--9----10---|--9--7h9-7--|

Solo
e|-------------------------------------------------|
B|-------------------------------------------------|
G|---------------------------------2-4-2--4-5b-5b--|
D|-----------4--2--------------2-4-----------------|
A|-----4--2---------4-4-2-0------------------------|
E|--2-----------------------0----------------------|

e|---------------------------------------------------|
B|-------------------17-17-14---------13--13h14--14--|
G|-6-6s9-9s11-11s14-----------16-14---14--14-----14--|
D|---------------------------------------------------|
A|---------------------------------------------------|
E|---------------------------------------------------|

e|--------12-14-16-17-17---------------------|
B|--12-14----------------17------------------|
G|--------------------------14---------------|
D|-----------------------------16-14---------|
A|-----------------------------------17-16b--|
E|-------------------------------------------|

e|----------------------------------|
B|----------------------------------|
G|----------------------------------|
D|----------------------------------|
A|--7-5-----------------------------|
E|------7-5-0-2s5-2s7-2s9-2s12s12~--|

End

tab: metro

Metro

Artist: LEO今井
Album: FIX NEON

*CAPO 2*

INTRO
e|--0--|-----------------------|
B|--3--|-----------------------|
G|--2--|--6--7--9--11--12--14--|
D|--0--|-----------------------|
A|--2--|--4--5--7--9---10--12--|
E|-----|-----------------------|

Verse 1
e|--0-------0--|-------10----|--------3-2----|--------17-17-17-----|
B|--3-------0--|----10----10-|------3-----3--|-----17----------17--|
G|--2-------4--|--9----------|--0-2----------|--14-----------------|
D|--0---0---4--|-------------|---------------|---------------------|
A|--2---0-h-0--|-------------|---------------|---------------------|
E|------0---3--|-------------|---------------|---------------------|

e|--12--10--7----------7--5-----------------10--|
B|--12--10--7----5--7--------7--5-----8-7---10--|
G|------------------------------------------7---|
D|---------------------------------7--------7---|
A|----------------------------------------------|
E|----------------------------------------------|

Chorus
e|--------5---------------------------------------------10----10----10------|
B|------5--------5-----5-----5---------10---10---10--10----10----10-----10--|
G|--6-7--------7---7-----7-----7-----9----9----9----------------------------|
D|-----------7-------7-----7-----7------------------------------------------|
A|--------------------------------------------------------------------------|
E|--------------------------------------------------------------------------|
e|----------5-----------------------------------------------|
B|------5-7---8-7-------5-----5-----5---------10---10---10--|
G|--6-7---------------7---7-----7-----7-----9----9----9-----|
D|------------------7-------7-----7-----7-------------------|
A|----------------------------------------------------------|
E|----------------------------------------------------------|

e|------12----12----12------12--|
B|--12----12----12-----12-------|
G|------------------------------|
D|------------------------------|
A|------------------------------|
E|------------------------------|

e|------------------|---------------|
B|--7--10--7--------|--7--10--7-----|
G|------------9--7--|------------9--|
D|------------------|---------------|
A|------------------|---------------|
E|------------------|---------------|

Verse 2
e|--0-------0--|--12--|--0-2-3-2------|--10--|
B|--3-------0--|--12--|----------3----|--10--|
G|--2-------4--|--12--|------------2--|--9---|
D|--0---0---4--|------|---------------|------|
A|--2---0-h-0--|------|---------------|------|
E|------0---3--|------|---------------|------|

e|--12--10--7----------7--5----------------|
B|--12--10--7----5--7--------7--5-----8-7--|
G|-----------------------------------------|
D|---------------------------------7-------|
A|-----------------------------------------|
E|-----------------------------------------|

e|--------7--10--7---------7--7--7--7--|
B|--5--7------------10--7--------------|
G|-------------------------------------|
D|-------------------------------------|
A|-------------------------------------|
E|-------------------------------------|

Chorus 2
e|--------5------------------------------------------10----12----14----12--|
B|------5--------5-----5-----5---------10---10---10--10----12----14----12--|
G|--6-7--------7---7-----7-----7-----9----9----9---------------------------|
D|-----------7-------7-----7-----7-----------------------------------------|
A|-------------------------------------------------------------------------|
E|-------------------------------------------------------------------------|

e|----------5-----------------------------------------------|
B|------5-7---8-7-------5-----5-----5---------10---10---10--|
G|--6-7---------------7---7-----7-----7-----9----9----9-----|
D|------------------7-------7-----7-----7-------------------|
A|----------------------------------------------------------|
E|----------------------------------------------------------|

e|-----10----10----10----10----12----12----12----12--|
B|--10----10----10----10----12----12----12----12-----|
G|---------------------------------------------------|
D|---------------------------------------------------|
A|---------------------------------------------------|
E|---------------------------------------------------|

Solo
e|---------------------------------------|
B|--0-12-15-0-10-12-0-7-10-0-5-8-0-7-10--|
G|---------------------------------------| x2
D|---------------------------------------|
A|---------------------------------------|
E|---------------------------------------|

e|--------------------------------|
B|--0-12-15-0-10-12-0------10-12--|
G|--------------------9-11--------|
D|--------------------------------|
A|--------------------------------|
E|--------------------------------|

e|---------------------------------------|
B|--0-12-15-0-10-12-0-7-10-0-5-8-0-7-10--|
G|---------------------------------------| x2
D|---------------------------------------|
A|---------------------------------------|
E|---------------------------------------|

e|-------12------12------12------12--10--|
B|--0-10----0-10----0-10----0-10---------|
G|---------------------------------------|
D|---------------------------------------|
A|---------------------------------------|
E|---------------------------------------|

e|-----10----------------------------|
B|--12----12-10-12-10------------10--|
G|--------------------11-9-11-11-----|
D|-----------------------------------|
A|-----------------------------------|
E|-----------------------------------|

e|---------------------------------------------|
B|-------10-12------10-12-s15-12-10------------|
G|--9-11-------9-11------------------11-10-12--|
D|---------------------------------------------|
A|---------------------------------------------|
E|---------------------------------------------|

e|-------12------12------12------12--10--|
B|--0-10----0-10----0-10----0-10---------|
G|---------------------------------------|
D|---------------------------------------| x2
A|---------------------------------------|
E|---------------------------------------|

e|-------14------14------14------14--12--|
B|--0-12----0-12----0-12----0-12---------|
G|---------------------------------------|
D|---------------------------------------|
A|---------------------------------------|
E|---------------------------------------|

e|-------17------17------17------17--15--14--12--14~|
B|--0-15----0-15----0-15----0-15--------------------|
G|--------------------------------------------------|
D|--------------------------------------------------|
A|--------------------------------------------------|
E|--------------------------------------------------|

-pause- 
Chorus 3
e|----------------------------------------------------------10----12----14----12--|
B|--7-8-s10-8-7---------5-----5-----5---------10---10---10--10----12----14----12--|
G|--------------7-----7---7-----7-----7-----9----9----9---------------------------| x2
D|------------------7-------7-----7-----7-----------------------------------------|
A|--------------------------------------------------------------------------------|
E|--------------------------------------------------------------------------------|

Bridge/Ending
e|---5--7--12--10--5--7---2-3-2--------|
B|---5--7--12--10--5--7---------3---5--|
G|--------------------------------2----|
D|-------------------------------------|
A|-------------------------------------|
E|-------------------------------------|

e|---5--7--10--12--5--7---2-3-2--------|
B|---5--7--10--12--5--7---------3---5--|
G|--------------------------------2----|
D|-------------------------------------|
A|-------------------------------------|
E|-------------------------------------|

e|--10----12----14----12--|
B|--10----12----14----12--|
G|------------------------| x4
D|------------------------|
A|------------------------|
E|------------------------|

OUTRO
e|-----------------------|--0--|
B|-----------------------|--3--|
G|--6--7--9--11--12--14--|--2--|
D|-----------------------|--0--|
A|--4--5--7--9---10--12--|--2--|
E|-----------------------|-----|

END

tab: tokyo lights (kimonos)

Tokyo Lights

 
Artist: KIMONOS

GTR1
e|---0----0--|
B|---7----3--|
G|---7----4--|
D|---7----5--|
A|---0----5--|
E|-----------|

GTR2
e|--------------------------|--12---10---|
B|--12---10---7---10--8--7--|--12---10---|
G|--12---9----7---9---9--7--|--11---7----|
D|--------------------------|------------|
A|--------------------------|------------|
E|--------------------------|------------|
*dischord in some places

tab: toumei shoujo (透明少女)

NUMBER GIRL – 透明少女
Album: SCHOOL GIRL DISTORTIONAL ADDICT

HISAKO

INTRO
e|------|
B|--12--|
G|--11--|
D|--9---|
A|------|
E|------|

VERSE
e|-------------------------|
B|-------------------------|
G|-------------------------|
D|--9--11--9---16--18--16--|
A|--9--9---9---14--14--14--|
E|-------------------------|

VERSE 2
e|----------------|
B|----------------|
G|----------------|
D|--8----11----9--|
A|--9----13----9--|
E|----------------|

CHORUS
e|-------------------------|
B|-------------------------|
G|-------------------------|
D|------8---9-----------4--|
A|--6---6---7---9---4---2--|
E|--4-----------7---2------|

e|---------------------------------|
B|---------------------------------|
G|---------------------------------|
D|------8---9-------8--------------|
A|--6---6---7---9---6---8---7---9--|
E|--4-----------7-------6---5---7--|

BREAK
e|------|
B|--12--|
G|--11--|
D|--9---|
A|------|
E|------|

e|-------------------------|
B|-------------------------|
G|-------------------------|
D|--9--11--9---9--9--9--4--|
A|--9--9---9---6--7--6--6--|
E|-------------------------|

e|-------------------------|
B|-------------------------|
G|-------------------------|
D|--9--11--9---9--9--9--4--|
A|--9--9---9---6--7--6--6--|
E|-------------------------|

e|-----------------------|
B|-----------------------|
G|-----------------------|
D|------16---9--9--9--4--|
A|--14--14---6--7--6--6--|
E|-----------------------|

e|-------------------------|
B|-------------------------|
G|-------------------------|
D|--9--11--9---16--18--16--|
A|--9--9---9---14--14--14--|
E|-------------------------|

Back to VERSE 2

Back to CHORUS

END
e|-----|
B|-----|
G|-----|
D|-----|
A|--7--|
E|--5--|


MUKAI

CAPO 2nd FRET

Intro
e|--0--|
B|--0--|
G|--6--|
D|--6--|
A|-----|
E|--5--|

VERSE
e|--0----0--|
B|--0----0--|
G|--6----6--|
D|--6-------|
A|-------5--|
E|--5-------|

VERSE 2
e|--0---0---0--|
B|--0---0---0--|
G|--4---4---6--|
D|------4---6--|
A|--4----------|
E|------4---5--|

CHORUS
e|--0---0---0---0---0---0--|
B|--0---0---0---0---0---0--|
G|--2---4---6---6---1---2--|
D|--2-----------6---2---2--|
A|------4---5-------2---0--|
E|--2-----------5----------|

e|--0---0---0---0---0---0---0---0--|
B|--0---0---0---0---0---0---0---0--|
G|--2---4---6---6---4---4---4---2--|
D|--2-----------6-------4---4---2--|
A|------4---5-------4-----------0--|
E|--2-----------5-------4---3------|

BREAK
e|--0---0-----0-----0--|
B|--0---0-----0-----0--|
G|--2---2---0h2---2s4--|
D|--2---2--------------|
A|--0------------------|
E|------2--------------|

(Arpeggio)

e|-----------------|
B|-----------------|
G|--2-------4---6--|
D|--2---4---4---6--|
A|--0---4---2---4--|
E|------2----------|

Back to VERSE 2

Back to CHORUS

END
e|--0--|
B|--0--|
G|--5--|
D|--5--|
A|-----|
E|--3--|

tab: omoide in my head

NUMBER GIRL – Omoide in my Head
Album: School Girl Bye Bye

GUITAR 1
Mukai

Intro:
D (etc)
e|--2---0---3---0---5--|
B|--3---3---3---0---3--|
G|--2---2---2---2---2--|
D|---------------------|
A|---------------------|
E|---------------------|

D (cont.)
e|--X-------------------------------------|
B|--X----------------10-------------------|
G|--X~with feeling---9--~improv key of D--|
D|--X----------------7--------------------|
A|--X-------------------------------------|
E|--X-------------------------------------|

G A D
e|--3---5---2-------------------|
B|--3---5---3-------------------|
G|--4---6---2-------------------|
D|--5---7--------0-2-0----------|
A|--5---7--------------2-0------|
E|--3---5------------------3-0--|

Verse-I:
G A D

D
e|--5---0---3---2---0--2--3--2--|
B|--3---3---3---3---3--3--3--3--|
G|--2---2---2---2---2--2--2--2--|
D|------------------------------|
A|------------------------------|
E|------------------------------|

G A D

D

Verse-II:
F#m G

Chorus:
D

G A D

*Repeat all*

2nd D variations
e|--2---2---2------------------|
B|--3---2---3---3-5-3----------|
G|--2---2---2---------4-2------|
D|------------------------5-2--|
A|-----------------------------|
E|-----------------------------|

End with D

GUITAR 2
Hisako

Intro:
D
e|-----------------------|
B|--10---7---8---8---10--|
G|--9----9---7---9---9---|
D|--7----7---7---7---7---|
A|-----------------------|
E|-----------------------|


e|--X-----------------|
B|--X-----------------|
G|--X--~with feeling--|
D|--X-----------------|
A|--X-----------------|
E|--X-----------------|

D
e|------------------|
B|--10---7---7---7--|
G|--7----7---9---7--|
D|--7----7---7---7--|
A|------------------|
E|------------------|

e|-------------------------------|
B|-------------------------------|
G|--7--11--7--4--2--7--11--4--2--|
D|-------------------------------|
A|-------------------------------|
E|-------------------------------|

e|---------------------------------------------------|
B|--10--8--7--8--7--5-----------5--------5-----5-----|
G|---------------------7--6--7-----6--7-----7-----7--|
D|---------------------------------------------------|
A|---------------------------------------------------|
E|---------------------------------------------------|

Verse-I:
D
e|------------------|
B|--10---7---7---7--|
G|--7----7---9---7--|
D|--7----7---7---7--|
A|------------------|
E|------------------|

D
e|------------------------|
B|--10---7---7---7--8--7--|
G|--7----7---9---7--7--7--|
D|--7----7---7---7--7--7--|
A|------------------------|
E|------------------------|

D
e|-------------|
B|-------------|
G|--7---6---7--|
D|--7---7---7--|
A|--5---5---5--|
E|-------------|

D
e|------------------|
B|--10---7---7---7--|
G|--7----7---9---7--|
D|--7----7---7---7--|
A|------------------|
E|------------------|

Verse-II:
(arpeggio)
e|--0---0-------------------|
B|--3---3----3--2-----------|
G|--2---2----------4--2--0--|
D|--------------------------|
A|--------------------------|
E|--2---3-------------------|

e|--0---0----------------|
B|--3---3----------2--3--|
G|--2---2----2--4--------|
D|-----------------------|
A|-----------------------|
E|--2---3----------------|

Chorus:
D
e|------------------|
B|--10---7---7---7--|
G|--7----7---9---7--|
D|--7----7---7---7--|
A|------------------|
E|------------------|

2nd Verse-I:
D
e|-------------------------------------|
B|-------------------------------------|
G|-----7--9--7------7-----7-----7------|
D|--7-----------10-----9-----7---------|
A|---------------------------------10--|
E|-------------------------------------|

D
e|------------------|
B|--10---7---7---7--|
G|--7----7---9---7--|
D|--7----7---7---7--|
A|------------------|
E|------------------|

*Repeat Verse-II*

*Repeat Chorus/etc*

Ending/Solo
e|------------|--------------------------|
B|------------|--12-14-12-12-14-12--b15--|
G|--11-12-14--|--12-12-12-12-12-12--b14--|
D|------------|--------------------------|
A|------------|--------------------------|
E|------------|--------------------------|

e|-----------------------------|
B|--15--17--15--17--15--19--15-|
G|-----------------------------|
D|-----------------------------|
A|-----------------------------|
E|-----------------------------|

e|-----17----17-15-14----17----17-15-14--|
B|--15----15----------15----15-----------|
G|---------------------------------------|
D|---------------------------------------|
A|---------------------------------------|
E|---------------------------------------|

e|---------------------------------------------|
B|--17-17-15-15-14-15-17-15~-------------------|
G|-----------------------------s14-12-11-9s11--|
D|---------------------------------------------|
A|---------------------------------------------|
E|---------------------------------------------|

D

end

tab: himitsu girl’s top secret


Zazen Boys - HIMITSU GIRL'S TOP SECRET
CD: HIMITSU GIRL'S TOP SECRET

Mukai
*Drop D tuning

Basic Sequence
e|----------------------|
B|----------------------|
G|----------------------|
D|--------4--6------7---|
A|-----7----------------|
D|--4------------4------|

chord attacks
e|----------------------|
B|----------------------|
G|--4---6---------------|
D|--4---6---------------|
A|--5---4---------------|
D|--0---0---------------|

CASIOMAN
e|-------------|-----5--|--------|-----12~--|
B|--5-5--7--9--|--5-----|--------|-5~-------|
G|-------------|--------|--4--6--|----------|
D|-------------|--------|--------|----------|
A|-------------|--------|--------|----------|
E|-------------|--------|--------|----------|