Posts Tagged 'BRUTAL MAN'

tab: brutal man


BRUTAL MAN
NUMBER GIRL
Album: SAPPUKEI

CAPO 2

mukai
e|--0--|---0---0---|------------------|--0---|
B|--0--|---0---0---|------------------|--0---|
G|--4--|---4---4---|------------------|--1---|
D|--4--|---4---0---|--2---5--6-----2--|--2---|
A|--0--|---0---3---|--2---3--4--5--2--|--2---|
E|--3--|---3-------|--0---------3--0--|------|

hisako
e|--0---0--|--14---------|--------------------|
B|--0---5--|---------14--|--5--------------3--|
G|--4---4--|------11-----|------3p2-----------|
D|--4---0--|-------------|-----------5--2-----|
A|--0---3--|-------------|--------------------|
E|--3------|-------------|--------------------|

e|---------|------------------|--------------|
B|---------|------------------|--------------|
G|------5--|------------------|--------------|
D|--5---5--|--2---5--6-----2--|-----5--2--5--|
A|--5---3--|--2---3--4--5--2--|--5--3--2--3--|
E|--3------|------------3-----|--3-----------|

*very similar to BRUTAL NUMBER GIRL*