Posts Tagged 'LEO今井'

tab: tokyo lights (東京電燈 -Tokyo Lights-)

東京電燈 -Tokyo Lights-

Artist: LEO今井
Album: City Folk

Main
e|------------------------------|
B|--5-6-5-----------------------|
G|---------5----------5---------|
D|------------7--5-7----(5)--7--|
A|------------------------------|
E|------------------------------|

Verse
F - F - A# - F - F - A# - C - Dm - A# - C
e|----------------------------------------|
B|----------------------------------------|
G|--10---10-----10--10--------------------|
D|--10---10--8--10--10--8--10--12--8--10--|
A|--8----8---8--8---8---8--10--12--8--10--|
E|-----------6----------6--8---10--6--8---|
(Palm-mute)

Chorus
e|-----------------|
B|-----------------|
G|--10-------------|
D|--10----8---12---|
A|--8-----8---12---|
E|--------6---10---|

Chorus lead
e|--------------13--15--17-17b-17--13-----------|
B|----------13-------------------------13-(15)--|
G|--12--14--------------------------------------|
D|----------------------------------------------|
A|----------------------------------------------|
E|----------------------------------------------|

Bridge
e|---------------------------------|
B|---------------------------------|
G|--10--8--7-----------------------|
D|--10--8--7--8---5---8----10--10--|
A|--8---6--5--8---5---8----10--10--|
E|------------6---3---6----7---8---|

Ending
F - Dm

END
Advertisements

tab: tokyo lights 2 (東京電燈其二)

Tokyo Lights 2 (東京電燈其二)

Artist: LEO今井
Album: FIX NEON

Main/Intro
e|----------8---------8-------|----------------|
B|-----8---------8------8-----|--1-~s13-15-10--|
G|--10---10---10---10-----10--|----------------|
D|----------------------------|----------------|
A|----------------------------|----------------|
E|----------------------------|----------------|

Verse
e|------------------|-------------|
B|------------------|--6---6---6--|
G|--10--10--10--10--|--5---5---5--|
D|--10--10--10--10--|--3----------|
A|--8---10----------|----------5--|
E|----------8---10--|------6------|
(Half-Mute)

Chorus
e|-----------------------------|--------------------------|
B|-----------------------------|--------------------------|
G|--3---5---7---2--3-----------|--3--5--7--2--3-----------|
D|--3---5---7---2--3-----------|--3--5--7--2--3--5--7--8--|
A|--1---3---5---0--1-------0)--|--1--3--5--0--1--5--8--8--|
E|--------------------(0h1-----|-----------------3--5--6--|

Chorus (Lead)
e|--15--17--12--13--------------------------|
B|------------------13--15------------------|
G|--------------------------10--12----------|
D|----------------------------------10--12--|
A|------------------------------------------|
E|------------------------------------------|

e|--15--17--12--13----------------------|
B|------------------13--15--------------|
G|--------------------------10--12------|
D|----------------------------------12--|
A|--------------------------------------|
E|--------------------------------------|

e|--15--17--13---15--17--19--20~--|
B|--------------------------------|
G|--------------------------------|
D|--------------------------------|
A|--------------------------------|
E|--------------------------------|

Repeat all

e|--10--12--13!--|
B|---------------|
G|---------------|
D|---------------|
A|---------------|
E|---------------|

Back to Chorus

Chorus Lead (alternate end)
e|--15--17------------|
B|----------b12--10~--|
G|--------------------|
D|--------------------|
A|--------------------|
E|--------------------|

Back to Main/Intro

END

tab: metro

Metro

Artist: LEO今井
Album: FIX NEON

*CAPO 2*

INTRO
e|--0--|-----------------------|
B|--3--|-----------------------|
G|--2--|--6--7--9--11--12--14--|
D|--0--|-----------------------|
A|--2--|--4--5--7--9---10--12--|
E|-----|-----------------------|

Verse 1
e|--0-------0--|-------10----|--------3-2----|--------17-17-17-----|
B|--3-------0--|----10----10-|------3-----3--|-----17----------17--|
G|--2-------4--|--9----------|--0-2----------|--14-----------------|
D|--0---0---4--|-------------|---------------|---------------------|
A|--2---0-h-0--|-------------|---------------|---------------------|
E|------0---3--|-------------|---------------|---------------------|

e|--12--10--7----------7--5-----------------10--|
B|--12--10--7----5--7--------7--5-----8-7---10--|
G|------------------------------------------7---|
D|---------------------------------7--------7---|
A|----------------------------------------------|
E|----------------------------------------------|

Chorus
e|--------5---------------------------------------------10----10----10------|
B|------5--------5-----5-----5---------10---10---10--10----10----10-----10--|
G|--6-7--------7---7-----7-----7-----9----9----9----------------------------|
D|-----------7-------7-----7-----7------------------------------------------|
A|--------------------------------------------------------------------------|
E|--------------------------------------------------------------------------|
e|----------5-----------------------------------------------|
B|------5-7---8-7-------5-----5-----5---------10---10---10--|
G|--6-7---------------7---7-----7-----7-----9----9----9-----|
D|------------------7-------7-----7-----7-------------------|
A|----------------------------------------------------------|
E|----------------------------------------------------------|

e|------12----12----12------12--|
B|--12----12----12-----12-------|
G|------------------------------|
D|------------------------------|
A|------------------------------|
E|------------------------------|

e|------------------|---------------|
B|--7--10--7--------|--7--10--7-----|
G|------------9--7--|------------9--|
D|------------------|---------------|
A|------------------|---------------|
E|------------------|---------------|

Verse 2
e|--0-------0--|--12--|--0-2-3-2------|--10--|
B|--3-------0--|--12--|----------3----|--10--|
G|--2-------4--|--12--|------------2--|--9---|
D|--0---0---4--|------|---------------|------|
A|--2---0-h-0--|------|---------------|------|
E|------0---3--|------|---------------|------|

e|--12--10--7----------7--5----------------|
B|--12--10--7----5--7--------7--5-----8-7--|
G|-----------------------------------------|
D|---------------------------------7-------|
A|-----------------------------------------|
E|-----------------------------------------|

e|--------7--10--7---------7--7--7--7--|
B|--5--7------------10--7--------------|
G|-------------------------------------|
D|-------------------------------------|
A|-------------------------------------|
E|-------------------------------------|

Chorus 2
e|--------5------------------------------------------10----12----14----12--|
B|------5--------5-----5-----5---------10---10---10--10----12----14----12--|
G|--6-7--------7---7-----7-----7-----9----9----9---------------------------|
D|-----------7-------7-----7-----7-----------------------------------------|
A|-------------------------------------------------------------------------|
E|-------------------------------------------------------------------------|

e|----------5-----------------------------------------------|
B|------5-7---8-7-------5-----5-----5---------10---10---10--|
G|--6-7---------------7---7-----7-----7-----9----9----9-----|
D|------------------7-------7-----7-----7-------------------|
A|----------------------------------------------------------|
E|----------------------------------------------------------|

e|-----10----10----10----10----12----12----12----12--|
B|--10----10----10----10----12----12----12----12-----|
G|---------------------------------------------------|
D|---------------------------------------------------|
A|---------------------------------------------------|
E|---------------------------------------------------|

Solo
e|---------------------------------------|
B|--0-12-15-0-10-12-0-7-10-0-5-8-0-7-10--|
G|---------------------------------------| x2
D|---------------------------------------|
A|---------------------------------------|
E|---------------------------------------|

e|--------------------------------|
B|--0-12-15-0-10-12-0------10-12--|
G|--------------------9-11--------|
D|--------------------------------|
A|--------------------------------|
E|--------------------------------|

e|---------------------------------------|
B|--0-12-15-0-10-12-0-7-10-0-5-8-0-7-10--|
G|---------------------------------------| x2
D|---------------------------------------|
A|---------------------------------------|
E|---------------------------------------|

e|-------12------12------12------12--10--|
B|--0-10----0-10----0-10----0-10---------|
G|---------------------------------------|
D|---------------------------------------|
A|---------------------------------------|
E|---------------------------------------|

e|-----10----------------------------|
B|--12----12-10-12-10------------10--|
G|--------------------11-9-11-11-----|
D|-----------------------------------|
A|-----------------------------------|
E|-----------------------------------|

e|---------------------------------------------|
B|-------10-12------10-12-s15-12-10------------|
G|--9-11-------9-11------------------11-10-12--|
D|---------------------------------------------|
A|---------------------------------------------|
E|---------------------------------------------|

e|-------12------12------12------12--10--|
B|--0-10----0-10----0-10----0-10---------|
G|---------------------------------------|
D|---------------------------------------| x2
A|---------------------------------------|
E|---------------------------------------|

e|-------14------14------14------14--12--|
B|--0-12----0-12----0-12----0-12---------|
G|---------------------------------------|
D|---------------------------------------|
A|---------------------------------------|
E|---------------------------------------|

e|-------17------17------17------17--15--14--12--14~|
B|--0-15----0-15----0-15----0-15--------------------|
G|--------------------------------------------------|
D|--------------------------------------------------|
A|--------------------------------------------------|
E|--------------------------------------------------|

-pause- 
Chorus 3
e|----------------------------------------------------------10----12----14----12--|
B|--7-8-s10-8-7---------5-----5-----5---------10---10---10--10----12----14----12--|
G|--------------7-----7---7-----7-----7-----9----9----9---------------------------| x2
D|------------------7-------7-----7-----7-----------------------------------------|
A|--------------------------------------------------------------------------------|
E|--------------------------------------------------------------------------------|

Bridge/Ending
e|---5--7--12--10--5--7---2-3-2--------|
B|---5--7--12--10--5--7---------3---5--|
G|--------------------------------2----|
D|-------------------------------------|
A|-------------------------------------|
E|-------------------------------------|

e|---5--7--10--12--5--7---2-3-2--------|
B|---5--7--10--12--5--7---------3---5--|
G|--------------------------------2----|
D|-------------------------------------|
A|-------------------------------------|
E|-------------------------------------|

e|--10----12----14----12--|
B|--10----12----14----12--|
G|------------------------| x4
D|------------------------|
A|------------------------|
E|------------------------|

OUTRO
e|-----------------------|--0--|
B|-----------------------|--3--|
G|--6--7--9--11--12--14--|--2--|
D|-----------------------|--0--|
A|--4--5--7--9---10--12--|--2--|
E|-----------------------|-----|

END

tab: tokyo lights (kimonos)

Tokyo Lights

 
Artist: KIMONOS

GTR1
e|---0----0--|
B|---7----3--|
G|---7----4--|
D|---7----5--|
A|---0----5--|
E|-----------|

GTR2
e|--------------------------|--12---10---|
B|--12---10---7---10--8--7--|--12---10---|
G|--12---9----7---9---9--7--|--11---7----|
D|--------------------------|------------|
A|--------------------------|------------|
E|--------------------------|------------|
*dischord in some places