Posts Tagged 'tokyo lights'

tab: tokyo lights (東京電燈 -Tokyo Lights-)

東京電燈 -Tokyo Lights-

Artist: LEO今井
Album: City Folk

Main
e|------------------------------|
B|--5-6-5-----------------------|
G|---------5----------5---------|
D|------------7--5-7----(5)--7--|
A|------------------------------|
E|------------------------------|

Verse
F - F - A# - F - F - A# - C - Dm - A# - C
e|----------------------------------------|
B|----------------------------------------|
G|--10---10-----10--10--------------------|
D|--10---10--8--10--10--8--10--12--8--10--|
A|--8----8---8--8---8---8--10--12--8--10--|
E|-----------6----------6--8---10--6--8---|
(Palm-mute)

Chorus
e|-----------------|
B|-----------------|
G|--10-------------|
D|--10----8---12---|
A|--8-----8---12---|
E|--------6---10---|

Chorus lead
e|--------------13--15--17-17b-17--13-----------|
B|----------13-------------------------13-(15)--|
G|--12--14--------------------------------------|
D|----------------------------------------------|
A|----------------------------------------------|
E|----------------------------------------------|

Bridge
e|---------------------------------|
B|---------------------------------|
G|--10--8--7-----------------------|
D|--10--8--7--8---5---8----10--10--|
A|--8---6--5--8---5---8----10--10--|
E|------------6---3---6----7---8---|

Ending
F - Dm

END

tab: tokyo lights (kimonos)

Tokyo Lights

 
Artist: KIMONOS

GTR1
e|---0----0--|
B|---7----3--|
G|---7----4--|
D|---7----5--|
A|---0----5--|
E|-----------|

GTR2
e|--------------------------|--12---10---|
B|--12---10---7---10--8--7--|--12---10---|
G|--12---9----7---9---9--7--|--11---7----|
D|--------------------------|------------|
A|--------------------------|------------|
E|--------------------------|------------|
*dischord in some places